  0
SECTION
  2
HEADER
  9
$ACADVER
  1
AC1027
  9
$ACADMAINTVER
 70
   125
  9
$DWGCODEPAGE
  3
ANSI_1252
  9
$LASTSAVEDBY
  1
Hp
  9
$REQUIREDVERSIONS
160
                 0
  9
$INSBASE
 10
0.0
 20
0.0
 30
0.0
  9
$EXTMIN
 10
2931.037941726709
 20
1630.488410391373
 30
0.0
  9
$EXTMAX
 10
3228.037941726709
 20
2050.488410391373
 30
0.0
  9
$LIMMIN
 10
0.0
 20
0.0
  9
$LIMMAX
 10
420.0
 20
297.0
  9
$ORTHOMODE
 70
     0
  9
$REGENMODE
 70
     1
  9
$FILLMODE
 70
     1
  9
$QTEXTMODE
 70
     0
  9
$MIRRTEXT
 70
     0
  9
$LTSCALE
 40
1.0
  9
$ATTMODE
 70
     1
  9
$TEXTSIZE
 40
2.5
  9
$TRACEWID
 40
1.0
  9
$TEXTSTYLE
  7
Standard
  9
$CLAYER
  8
0
  9
$CELTYPE
  6
ByLayer
  9
$CECOLOR
 62
   256
  9
$CELTSCALE
 40
1.0
  9
$DISPSILH
 70
     0
  9
$DIMSCALE
 40
1.0
  9
$DIMASZ
 40
2.5
  9
$DIMEXO
 40
0.625
  9
$DIMDLI
 40
3.75
  9
$DIMRND
 40
0.0
  9
$DIMDLE
 40
0.0
  9
$DIMEXE
 40
1.25
  9
$DIMTP
 40
0.0
  9
$DIMTM
 40
0.0
  9
$DIMTXT
 40
2.5
  9
$DIMCEN
 40
2.5
  9
$DIMTSZ
 40
0.0
  9
$DIMTOL
 70
     0
  9
$DIMLIM
 70
     0
  9
$DIMTIH
 70
     0
  9
$DIMTOH
 70
     0
  9
$DIMSE1
 70
     0
  9
$DIMSE2
 70
     0
  9
$DIMTAD
 70
     1
  9
$DIMZIN
 70
     8
  9
$DIMBLK
  1

  9
$DIMASO
 70
     1
  9
$DIMSHO
 70
     1
  9
$DIMPOST
  1

  9
$DIMAPOST
  1

  9
$DIMALT
 70
     0
  9
$DIMALTD
 70
     3
  9
$DIMALTF
 40
0.03937007874016
  9
$DIMLFAC
 40
1.0
  9
$DIMTOFL
 70
     1
  9
$DIMTVP
 40
0.0
  9
$DIMTIX
 70
     0
  9
$DIMSOXD
 70
     0
  9
$DIMSAH
 70
     0
  9
$DIMBLK1
  1

  9
$DIMBLK2
  1

  9
$DIMSTYLE
  2
ISO-25
  9
$DIMCLRD
 70
     0
  9
$DIMCLRE
 70
     0
  9
$DIMCLRT
 70
     0
  9
$DIMTFAC
 40
1.0
  9
$DIMGAP
 40
0.625
  9
$DIMJUST
 70
     0
  9
$DIMSD1
 70
     0
  9
$DIMSD2
 70
     0
  9
$DIMTOLJ
 70
     0
  9
$DIMTZIN
 70
     8
  9
$DIMALTZ
 70
     0
  9
$DIMALTTZ
 70
     0
  9
$DIMUPT
 70
     0
  9
$DIMDEC
 70
     2
  9
$DIMTDEC
 70
     2
  9
$DIMALTU
 70
     2
  9
$DIMALTTD
 70
     3
  9
$DIMTXSTY
  7
Standard
  9
$DIMAUNIT
 70
     0
  9
$DIMADEC
 70
     0
  9
$DIMALTRND
 40
0.0
  9
$DIMAZIN
 70
     0
  9
$DIMDSEP
 70
    44
  9
$DIMATFIT
 70
     3
  9
$DIMFRAC
 70
     0
  9
$DIMLDRBLK
  1

  9
$DIMLUNIT
 70
     2
  9
$DIMLWD
 70
    -2
  9
$DIMLWE
 70
    -2
  9
$DIMTMOVE
 70
     0
  9
$DIMFXL
 40
1.0
  9
$DIMFXLON
 70
     0
  9
$DIMJOGANG
 40
0.7853981633974483
  9
$DIMTFILL
 70
     0
  9
$DIMTFILLCLR
 70
     0
  9
$DIMARCSYM
 70
     0
  9
$DIMLTYPE
  6

  9
$DIMLTEX1
  6

  9
$DIMLTEX2
  6

  9
$DIMTXTDIRECTION
 70
     0
  9
$LUNITS
 70
     2
  9
$LUPREC
 70
     4
  9
$SKETCHINC
 40
1.0
  9
$FILLETRAD
 40
0.0
  9
$AUNITS
 70
     0
  9
$AUPREC
 70
     0
  9
$MENU
  1
.
  9
$ELEVATION
 40
0.0
  9
$PELEVATION
 40
0.0
  9
$THICKNESS
 40
0.0
  9
$LIMCHECK
 70
     0
  9
$CHAMFERA
 40
0.0
  9
$CHAMFERB
 40
0.0
  9
$CHAMFERC
 40
0.0
  9
$CHAMFERD
 40
0.0
  9
$SKPOLY
 70
     0
  9
$TDCREATE
 40
2459622.575219908
  9
$TDUCREATE
 40
2459622.533553241
  9
$TDUPDATE
 40
2459622.575671296
  9
$TDUUPDATE
 40
2459622.534004630
  9
$TDINDWG
 40
0.0004513889
  9
$TDUSRTIMER
 40
0.0004513889
  9
$USRTIMER
 70
     1
  9
$ANGBASE
 50
0.0
  9
$ANGDIR
 70
     0
  9
$PDMODE
 70
     0
  9
$PDSIZE
 40
0.0
  9
$PLINEWID
 40
0.0
  9
$SPLFRAME
 70
     0
  9
$SPLINETYPE
 70
     6
  9
$SPLINESEGS
 70
     8
  9
$HANDSEED
  5
3C7
  9
$SURFTAB1
 70
     6
  9
$SURFTAB2
 70
     6
  9
$SURFTYPE
 70
     6
  9
$SURFU
 70
     6
  9
$SURFV
 70
     6
  9
$UCSBASE
  2

  9
$UCSNAME
  2

  9
$UCSORG
 10
0.0
 20
0.0
 30
0.0
  9
$UCSXDIR
 10
1.0
 20
0.0
 30
0.0
  9
$UCSYDIR
 10
0.0
 20
1.0
 30
0.0
  9
$UCSORTHOREF
  2

  9
$UCSORTHOVIEW
 70
     0
  9
$UCSORGTOP
 10
0.0
 20
0.0
 30
0.0
  9
$UCSORGBOTTOM
 10
0.0
 20
0.0
 30
0.0
  9
$UCSORGLEFT
 10
0.0
 20
0.0
 30
0.0
  9
$UCSORGRIGHT
 10
0.0
 20
0.0
 30
0.0
  9
$UCSORGFRONT
 10
0.0
 20
0.0
 30
0.0
  9
$UCSORGBACK
 10
0.0
 20
0.0
 30
0.0
  9
$PUCSBASE
  2

  9
$PUCSNAME
  2

  9
$PUCSORG
 10
0.0
 20
0.0
 30
0.0
  9
$PUCSXDIR
 10
1.0
 20
0.0
 30
0.0
  9
$PUCSYDIR
 10
0.0
 20
1.0
 30
0.0
  9
$PUCSORTHOREF
  2

  9
$PUCSORTHOVIEW
 70
     0
  9
$PUCSORGTOP
 10
0.0
 20
0.0
 30
0.0
  9
$PUCSORGBOTTOM
 10
0.0
 20
0.0
 30
0.0
  9
$PUCSORGLEFT
 10
0.0
 20
0.0
 30
0.0
  9
$PUCSORGRIGHT
 10
0.0
 20
0.0
 30
0.0
  9
$PUCSORGFRONT
 10
0.0
 20
0.0
 30
0.0
  9
$PUCSORGBACK
 10
0.0
 20
0.0
 30
0.0
  9
$USERI1
 70
     0
  9
$USERI2
 70
     0
  9
$USERI3
 70
     0
  9
$USERI4
 70
     0
  9
$USERI5
 70
     0
  9
$USERR1
 40
0.0
  9
$USERR2
 40
0.0
  9
$USERR3
 40
0.0
  9
$USERR4
 40
0.0
  9
$USERR5
 40
0.0
  9
$WORLDVIEW
 70
     1
  9
$SHADEDGE
 70
     3
  9
$SHADEDIF
 70
    70
  9
$TILEMODE
 70
     1
  9
$MAXACTVP
 70
    64
  9
$PINSBASE
 10
0.0
 20
0.0
 30
0.0
  9
$PLIMCHECK
 70
     0
  9
$PEXTMIN
 10
0.0
 20
0.0
 30
0.0
  9
$PEXTMAX
 10
0.0
 20
0.0
 30
0.0
  9
$PLIMMIN
 10
0.0
 20
0.0
  9
$PLIMMAX
 10
12.0
 20
9.0
  9
$UNITMODE
 70
     0
  9
$VISRETAIN
 70
     1
  9
$PLINEGEN
 70
     0
  9
$PSLTSCALE
 70
     1
  9
$TREEDEPTH
 70
  3020
  9
$CMLSTYLE
  2
Standard
  9
$CMLJUST
 70
     0
  9
$CMLSCALE
 40
20.0
  9
$PROXYGRAPHICS
 70
     1
  9
$MEASUREMENT
 70
     1
  9
$CELWEIGHT
370
    -1
  9
$ENDCAPS
280
     0
  9
$JOINSTYLE
280
     0
  9
$LWDISPLAY
290
     0
  9
$INSUNITS
 70
     4
  9
$HYPERLINKBASE
  1

  9
$STYLESHEET
  1

  9
$XEDIT
290
     1
  9
$CEPSNTYPE
380
     0
  9
$PSTYLEMODE
290
     1
  9
$FINGERPRINTGUID
  2
{955DD5B0-647A-7E40-A289-D4065286DB09}
  9
$VERSIONGUID
  2
{FE238A99-ACEB-A247-80F1-9943B4B0BB5D}
  9
$EXTNAMES
290
     1
  9
$PSVPSCALE
 40
0.0
  9
$OLESTARTUP
290
     0
  9
$SORTENTS
280
   127
  9
$INDEXCTL
280
     0
  9
$HIDETEXT
280
     1
  9
$XCLIPFRAME
280
     2
  9
$HALOGAP
280
     0
  9
$OBSCOLOR
 70
   257
  9
$OBSLTYPE
280
     0
  9
$INTERSECTIONDISPLAY
280
     0
  9
$INTERSECTIONCOLOR
 70
   257
  9
$DIMASSOC
280
     2
  9
$PROJECTNAME
  1

  9
$CAMERADISPLAY
290
     0
  9
$LENSLENGTH
 40
50.0
  9
$CAMERAHEIGHT
 40
0.0
  9
$STEPSPERSEC
 40
2.0
  9
$STEPSIZE
 40
6.0
  9
$3DDWFPREC
 40
2.0
  9
$PSOLWIDTH
 40
5.0
  9
$PSOLHEIGHT
 40
80.0
  9
$LOFTANG1
 40
1.570796326794896
  9
$LOFTANG2
 40
1.570796326794896
  9
$LOFTMAG1
 40
0.0
  9
$LOFTMAG2
 40
0.0
  9
$LOFTPARAM
 70
     7
  9
$LOFTNORMALS
280
     1
  9
$LATITUDE
 40
37.795
  9
$LONGITUDE
 40
-122.394
  9
$NORTHDIRECTION
 40
0.0
  9
$TIMEZONE
 70
 -8000
  9
$LIGHTGLYPHDISPLAY
280
     1
  9
$TILEMODELIGHTSYNCH
280
     1
  9
$CMATERIAL
347
EC
  9
$SOLIDHIST
280
     0
  9
$SHOWHIST
280
     1
  9
$DWFFRAME
280
     2
  9
$DGNFRAME
280
     0
  9
$REALWORLDSCALE
290
     1
  9
$INTERFERECOLOR
 62
     1
  9
$INTERFEREOBJVS
345
F9
  9
$INTERFEREVPVS
346
F6
  9
$CSHADOW
280
     0
  9
$SHADOWPLANELOCATION
 40
0.0
  0
ENDSEC
  0
SECTION
  2
CLASSES
  0
CLASS
  1
ACDBDICTIONARYWDFLT
  2
AcDbDictionaryWithDefault
  3
ObjectDBX Classes
 90
        0
 91
        1
280
     0
281
     0
  0
CLASS
  1
DICTIONARYVAR
  2
AcDbDictionaryVar
  3
ObjectDBX Classes
 90
        0
 91
       11
280
     0
281
     0
  0
CLASS
  1
TABLESTYLE
  2
AcDbTableStyle
  3
ObjectDBX Classes
 90
     4095
 91
        1
280
     0
281
     0
  0
CLASS
  1
MATERIAL
  2
AcDbMaterial
  3
ObjectDBX Classes
 90
     1153
 91
        3
280
     0
281
     0
  0
CLASS
  1
VISUALSTYLE
  2
AcDbVisualStyle
  3
ObjectDBX Classes
 90
     4095
 91
       24
280
     0
281
     0
  0
CLASS
  1
SCALE
  2
AcDbScale
  3
ObjectDBX Classes
 90
     1153
 91
       17
280
     0
281
     0
  0
CLASS
  1
MLEADERSTYLE
  2
AcDbMLeaderStyle
  3
ACDB_MLEADERSTYLE_CLASS
 90
     4095
 91
        2
280
     0
281
     0
  0
CLASS
  1
CELLSTYLEMAP
  2
AcDbCellStyleMap
  3
ObjectDBX Classes
 90
     1152
 91
        1
280
     0
281
     0
  0
CLASS
  1
EXACXREFPANELOBJECT
  2
ExAcXREFPanelObject
  3
EXAC_ESW
 90
     1025
 91
        0
280
     0
281
     0
  0
CLASS
  1
NPOCOLLECTION
  2
AcDbImpNonPersistentObjectsCollection
  3
ObjectDBX Classes
 90
     1153
 91
        0
280
     0
281
     0
  0
CLASS
  1
LAYER_INDEX
  2
AcDbLayerIndex
  3
ObjectDBX Classes
 90
        0
 91
        0
280
     0
281
     0
  0
CLASS
  1
SPATIAL_INDEX
  2
AcDbSpatialIndex
  3
ObjectDBX Classes
 90
        0
 91
        0
280
     0
281
     0
  0
CLASS
  1
IDBUFFER
  2
AcDbIdBuffer
  3
ObjectDBX Classes
 90
        0
 91
        0
280
     0
281
     0
  0
CLASS
  1
ACDBSECTIONVIEWSTYLE
  2
AcDbSectionViewStyle
  3
ObjectDBX Classes
 90
     1025
 91
        1
280
     0
281
     0
  0
CLASS
  1
ACDBDETAILVIEWSTYLE
  2
AcDbDetailViewStyle
  3
ObjectDBX Classes
 90
     1025
 91
        1
280
     0
281
     0
  0
CLASS
  1
SORTENTSTABLE
  2
AcDbSortentsTable
  3
ObjectDBX Classes
 90
        0
 91
        1
280
     0
281
     0
  0
ENDSEC
  0
SECTION
  2
TABLES
  0
TABLE
  2
VPORT
  5
8
330
0
100
AcDbSymbolTable
 70
     1
1001
ACAD
1000
DbSaveVer
1071
      247
  0
VPORT
  5
EA
330
8
100
AcDbSymbolTableRecord
100
AcDbViewportTableRecord
  2
*Active
 70
     0
 10
0.0
 20
0.0
 11
1.0
 21
1.0
 12
3643.374675731286
 22
1440.684066268786
 13
0.0
 23
0.0
 14
10.0
 24
10.0
 15
10.0
 25
10.0
 16
0.0
 26
0.0
 36
1.0
 17
0.0
 27
0.0
 37
0.0
 40
2653.761721685202
 41
2.529177718832891
 42
50.0
 43
0.0
 44
0.0
 50
0.0
 51
0.0
 71
     0
 72
  1000
 73
     1
 74
     3
 75
     0
 76
     1
 77
     0
 78
     0
281
     0
 65
     1
110
0.0
120
0.0
130
0.0
111
1.0
121
0.0
131
0.0
112
0.0
122
1.0
132
0.0
 79
     0
146
0.0
348
F5
 60
     3
 61
     5
292
     1
282
     1
141
0.0
142
0.0
 63
   250
421
  3355443
1001
ACAD_NAV_VCDISPLAY
1070
     3
  0
ENDTAB
  0
TABLE
  2
LTYPE
  5
5
330
0
100
AcDbSymbolTable
 70
     1
  0
LTYPE
  5
14
330
5
100
AcDbSymbolTableRecord
100
AcDbLinetypeTableRecord
  2
ByBlock
 70
     0
  3

 72
    65
 73
     0
 40
0.0
  0
LTYPE
  5
15
330
5
100
AcDbSymbolTableRecord
100
AcDbLinetypeTableRecord
  2
ByLayer
 70
     0
  3

 72
    65
 73
     0
 40
0.0
  0
LTYPE
  5
16
330
5
100
AcDbSymbolTableRecord
100
AcDbLinetypeTableRecord
  2
Continuous
 70
     0
  3
Solid line
 72
    65
 73
     0
 40
0.0
  0
ENDTAB
  0
TABLE
  2
LAYER
  5
2
102
{ACAD_XDICTIONARY
360
1FF
102
}
330
0
100
AcDbSymbolTable
 70
     2
  0
LAYER
  5
10
102
{ACAD_XDICTIONARY
360
13C
102
}
330
2
100
AcDbSymbolTableRecord
100
AcDbLayerTableRecord
  2
0
 70
     0
 62
     7
  6
Continuous
370
    -3
390
F
347
EE
348
0
  0
LAYER
  5
2A0
330
2
100
AcDbSymbolTableRecord
100
AcDbLayerTableRecord
  2
red
 70
     0
 62
    10
  6
Continuous
370
    -3
390
F
347
EE
348
0
1001
AcAecLayerStandard
1000

1000

1001
AcCmTransparency
1071
        0
  0
ENDTAB
  0
TABLE
  2
STYLE
  5
3
330
0
100
AcDbSymbolTable
 70
     2
  0
STYLE
  5
11
330
3
100
AcDbSymbolTableRecord
100
AcDbTextStyleTableRecord
  2
Standard
 70
     0
 40
0.0
 41
1.0
 50
0.0
 71
     0
 42
2.5
  3
arial.ttf
  4

1001
ACAD
1000
Arial
1071
       34
  0
STYLE
  5
132
330
3
100
AcDbSymbolTableRecord
100
AcDbTextStyleTableRecord
  2
Annotative
 70
     0
 40
0.0
 41
1.0
 50
0.0
 71
     0
 42
2.5
  3
arial.ttf
  4

1001
AcadAnnotative
1000
AnnotativeData
1002
{
1070
     1
1070
     1
1002
}
1001
ACAD
1000
Arial
1071
       34
  0
ENDTAB
  0
TABLE
  2
VIEW
  5
6
330
0
100
AcDbSymbolTable
 70
     0
  0
ENDTAB
  0
TABLE
  2
UCS
  5
7
330
0
100
AcDbSymbolTable
 70
     0
  0
ENDTAB
  0
TABLE
  2
APPID
  5
9
330
0
100
AcDbSymbolTable
 70
    10
  0
APPID
  5
12
330
9
100
AcDbSymbolTableRecord
100
AcDbRegAppTableRecord
  2
ACAD
 70
     0
  0
APPID
  5
9E
330
9
100
AcDbSymbolTableRecord
100
AcDbRegAppTableRecord
  2
ACAD_PSEXT
 70
     0
  0
APPID
  5
133
330
9
100
AcDbSymbolTableRecord
100
AcDbRegAppTableRecord
  2
AcadAnnoPO
 70
     0
  0
APPID
  5
134
330
9
100
AcDbSymbolTableRecord
100
AcDbRegAppTableRecord
  2
AcadAnnotative
 70
     0
  0
APPID
  5
135
330
9
100
AcDbSymbolTableRecord
100
AcDbRegAppTableRecord
  2
ACAD_DSTYLE_DIMJAG
 70
     0
  0
APPID
  5
136
330
9
100
AcDbSymbolTableRecord
100
AcDbRegAppTableRecord
  2
ACAD_DSTYLE_DIMTALN
 70
     0
  0
APPID
  5
165
330
9
100
AcDbSymbolTableRecord
100
AcDbRegAppTableRecord
  2
ACAD_MLEADERVER
 70
     0
  0
APPID
  5
217
330
9
100
AcDbSymbolTableRecord
100
AcDbRegAppTableRecord
  2
ACAD_NAV_VCDISPLAY
 70
     0
  0
APPID
  5
2A1
330
9
100
AcDbSymbolTableRecord
100
AcDbRegAppTableRecord
  2
AcAecLayerStandard
 70
     0
  0
APPID
  5
2A2
330
9
100
AcDbSymbolTableRecord
100
AcDbRegAppTableRecord
  2
AcCmTransparency
 70
     0
  0
ENDTAB
  0
TABLE
  2
DIMSTYLE
  5
A
330
0
100
AcDbSymbolTable
 70
     3
100
AcDbDimStyleTable
 71
     2
340
27
340
137
  0
DIMSTYLE
105
1B0
330
A
100
AcDbSymbolTableRecord
100
AcDbDimStyleTableRecord
  2
Standard
 70
     0
340
11
  0
DIMSTYLE
105
137
330
A
100
AcDbSymbolTableRecord
100
AcDbDimStyleTableRecord
  2
Annotative
 70
     0
 40
0.0
 41
2.5
 42
0.625
 43
3.75
 44
1.25
 73
     0
 74
     0
 77
     1
 78
     8
140
2.5
141
2.5
143
0.03937007874016
147
0.625
171
     3
172
     1
271
     2
272
     2
274
     3
278
    44
283
     0
284
     8
340
11
1001
AcadAnnotative
1000
AnnotativeData
1002
{
1070
     1
1070
     1
1002
}
1001
ACAD_DSTYLE_DIMJAG
1070
   388
1040
1.5
1001
ACAD_DSTYLE_DIMTALN
1070
   392
1070
     0
  0
DIMSTYLE
105
27
330
A
100
AcDbSymbolTableRecord
100
AcDbDimStyleTableRecord
  2
ISO-25
 70
     0
 41
2.5
 42
0.625
 43
3.75
 44
1.25
 73
     0
 74
     0
 77
     1
 78
     8
140
2.5
141
2.5
143
0.03937007874016
147
0.625
171
     3
172
     1
271
     2
272
     2
274
     3
278
    44
283
     0
284
     8
340
11
  0
ENDTAB
  0
TABLE
  2
BLOCK_RECORD
  5
1
330
0
100
AcDbSymbolTable
 70
     2
  0
BLOCK_RECORD
  5
1F
102
{ACAD_XDICTIONARY
360
1CE
102
}
330
1
100
AcDbSymbolTableRecord
100
AcDbBlockTableRecord
  2
*Model_Space
340
22
 70
     0
280
     1
281
     0
  0
BLOCK_RECORD
  5
D2
330
1
100
AcDbSymbolTableRecord
100
AcDbBlockTableRecord
  2
*Paper_Space
340
D3
 70
     0
280
     1
281
     0
  0
BLOCK_RECORD
  5
D6
330
1
100
AcDbSymbolTableRecord
100
AcDbBlockTableRecord
  2
*Paper_Space0
340
D7
 70
     0
280
     1
281
     0
  0
ENDTAB
  0
ENDSEC
  0
SECTION
  2
BLOCKS
  0
BLOCK
  5
20
330
1F
100
AcDbEntity
  8
0
100
AcDbBlockBegin
  2
*Model_Space
 70
     0
 10
0.0
 20
0.0
 30
0.0
  3
*Model_Space
  1

  0
ENDBLK
  5
21
330
1F
100
AcDbEntity
  8
0
100
AcDbBlockEnd
  0
BLOCK
  5
D4
330
D2
100
AcDbEntity
 67
     1
  8
0
100
AcDbBlockBegin
  2
*Paper_Space
 70
     0
 10
0.0
 20
0.0
 30
0.0
  3
*Paper_Space
  1

  0
ENDBLK
  5
D5
330
D2
100
AcDbEntity
 67
     1
  8
0
100
AcDbBlockEnd
  0
BLOCK
  5
D8
330
D6
100
AcDbEntity
 67
     1
  8
0
100
AcDbBlockBegin
  2
*Paper_Space0
 70
     0
 10
0.0
 20
0.0
 30
0.0
  3
*Paper_Space0
  1

  0
ENDBLK
  5
D9
330
D6
100
AcDbEntity
 67
     1
  8
0
100
AcDbBlockEnd
  0
ENDSEC
  0
SECTION
  2
ENTITIES
  0
LWPOLYLINE
  5
331
330
1F
100
AcDbEntity
  8
0
100
AcDbPolyline
 90
        4
 70
     1
 43
0.0
 10
2931.037941726709
 20
2050.488410391373
 10
3228.037941726709
 20
2050.488410391373
 10
3228.037941726709
 20
1630.488410391373
 10
2931.037941726709
 20
1630.488410391373
  0
SPLINE
  5
332
330
1F
100
AcDbEntity
  8
red
100
AcDbSpline
210
0.0
220
0.0
230
1.0
 70
  1064
 71
     3
 72
    10
 73
     6
 74
     4
 42
0.000000001
 43
0.0000000001
 44
0.0000000001
 40
0.0
 40
0.0
 40
0.0
 40
0.0
 40
10.11236178406419
 40
22.02537736541942
 40
24.27584211795884
 40
24.27584211795884
 40
24.27584211795884
 40
24.27584211795884
 10
3001.250099929834
 20
1894.024558462662
 30
0.0
 10
2998.745816429576
 20
1891.772990902921
 30
0.0
 10
2993.291325154343
 20
1886.868931275111
 30
0.0
 10
2991.296304429427
 20
1877.386080516839
 30
0.0
 10
2993.78317807673
 20
1873.338073321381
 30
0.0
 10
2994.178322586084
 20
1872.694877066177
 30
0.0
 11
3001.250099929834
 21
1894.024558462662
 31
0.0
 11
2994.505471023584
 21
1886.489982046646
 31
0.0
 11
2993.085060867334
 21
1874.661948599381
 31
0.0
 11
2994.178322586084
 21
1872.694877066177
 31
0.0
  0
SPLINE
  5
333
330
1F
100
AcDbEntity
  8
red
100
AcDbSpline
210
0.0
220
0.0
230
1.0
 70
  1064
 71
     3
 72
     9
 73
     5
 74
     3
 42
0.000000001
 43
0.0000000001
 44
0.0000000001
 40
0.0
 40
0.0
 40
0.0
 40
0.0
 40
9.432193541815072
 40
16.1857330657469
 40
16.1857330657469
 40
16.1857330657469
 40
16.1857330657469
 10
3001.250099929834
 20
1894.024558462662
 30
0.0
 10
3000.081949769853
 20
1891.079128448649
 30
0.0
 10
2998.077393079372
 20
1886.024742768446
 30
0.0
 10
2997.686253262044
 20
1880.61535104656
 30
0.0
 10
2997.523049148584
 20
1878.358268179459
 30
0.0
 11
3001.250099929834
 21
1894.024558462662
 31
0.0
 11
2998.293556961084
 21
1885.06771031813
 31
0.0
 11
2997.523049148584
 21
1878.358268179459
 31
0.0
  0
SPLINE
  5
334
330
1F
100
AcDbEntity
  8
red
100
AcDbSpline
210
0.0
220
0.0
230
1.0
 70
  1064
 71
     3
 72
    12
 73
     8
 74
     6
 42
0.000000001
 43
0.0000000001
 44
0.0000000001
 40
0.0
 40
0.0
 40
0.0
 40
0.0
 40
14.11270801436922
 40
19.6376333933305
 40
26.21495767299668
 40
33.12913268847629
 40
36.12478210411289
 40
36.12478210411289
 40
36.12478210411289
 40
36.12478210411289
 10
3012.608986648584
 20
1890.463950552506
 30
0.0
 10
3008.163425059371
 20
1888.423601744315
 30
0.0
 10
3001.97748904854
 20
1885.584485265112
 30
0.0
 10
2997.448528848765
 20
1877.98189309056
 30
0.0
 10
2993.354257115445
 20
1873.003524987151
 30
0.0
 10
2993.668745652726
 20
1866.646904519922
 30
0.0
 10
2995.933614750052
 20
1864.199621872029
 30
0.0
 10
2996.618263992333
 20
1863.459830679459
 30
0.0
 11
3012.608986648584
 21
1890.463950552506
 31
0.0
 11
3000.714943679834
 21
1882.867881216568
 31
0.0
 11
2997.523049148584
 21
1878.358268179459
 31
0.0
 11
2994.178322586084
 21
1872.694877066177
 31
0.0
 11
2994.754006179834
 21
1865.804709829849
 31
0.0
 11
2996.618263992333
 21
1863.459830679459
 31
0.0
  0
SPLINE
  5
335
330
1F
100
AcDbEntity
  8
red
100
AcDbSpline
210
0.0
220
0.0
230
1.0
 70
  1064
 71
     3
 72
    16
 73
    12
 74
    10
 42
0.000000001
 43
0.0000000001
 44
0.0000000001
 40
0.0
 40
0.0
 40
0.0
 40
0.0
 40
6.278917620939178
 40
14.1545771423692
 40
26.70816618597519
 40
38.20053357831404
 40
49.25064598812586
 40
59.95340552013998
 40
81.69019506267231
 40
105.4522977463591
 40
111.5784317664011
 40
111.5784317664011
 40
111.5784317664011
 40
111.5784317664011
 10
3004.258400711084
 20
1853.241202749771
 30
0.0
 10
3002.075477852853
 20
1853.82843096935
 30
0.0
 10
2997.154510282006
 20
1855.152220774538
 30
0.0
 10
2995.772000862069
 20
1865.491757527422
 30
0.0
 10
3000.471242988979
 20
1875.526437132087
 30
0.0
 10
3010.653341529891
 20
1881.943292725037
 30
0.0
 10
3020.859222256221
 20
1886.33602718444
 30
0.0
 10
3035.30759529613
 20
1888.440466919511
 30
0.0
 10
3054.249496552144
 20
1887.971958872335
 30
0.0
 10
3070.428426993251
 20
1895.057171892987
 30
0.0
 10
3079.145911245336
 20
1899.84608483348
 30
0.0
 10
3080.932717117334
 20
1900.827659048599
 30
0.0
 11
3004.258400711084
 21
1853.241202749771
 31
0.0
 11
2998.533791336084
 21
1855.820670523209
 31
0.0
 11
2996.618263992333
 21
1863.459830679459
 31
0.0
 11
3001.564064773584
 21
1874.998099722427
 31
0.0
 11
3010.880471023584
 21
1881.727073111099
 31
0.0
 11
3021.107521804834
 21
1885.911857046646
 31
0.0
 11
3031.658791336084
 21
1887.70622960524
 31
0.0
 11
3053.321388992334
 21
1889.500632681412
 31
0.0
 11
3075.545021804834
 21
1897.91179601149
 31
0.0
 11
3080.932717117334
 21
1900.827659048599
 31
0.0
  0
SPLINE
  5
336
330
1F
100
AcDbEntity
  8
red
100
AcDbSpline
210
0.0
220
0.0
230
1.0
 70
  1064
 71
     3
 72
    11
 73
     7
 74
     5
 42
0.000000001
 43
0.0000000001
 44
0.0000000001
 40
0.0
 40
0.0
 40
0.0
 40
0.0
 40
13.69287123304501
 40
27.82114652206938
 40
41.31974533017752
 40
50.32479974662201
 40
50.32479974662201
 40
50.32479974662201
 40
50.32479974662201
 10
3080.932717117334
 20
1900.827659048599
 30
0.0
 10
3076.416228674939
 20
1901.524300754937
 30
0.0
 10
3067.239637105315
 20
1902.939735885784
 30
0.0
 10
3054.105516042343
 20
1907.355588763192
 30
0.0
 10
3041.775793952194
 20
1907.96809282965
 30
0.0
 10
3034.307120998718
 20
1907.30352336518
 30
0.0
 10
3031.318459304834
 20
1907.037589468521
 30
0.0
 11
3080.932717117334
 21
1900.827659048599
 31
0.0
 11
3067.463967117334
 21
1903.294944204849
 31
0.0
 11
3053.770119461084
 21
1906.771537222427
 31
0.0
 11
3040.301369461084
 21
1907.668723501724
 31
0.0
 11
3031.318459304834
 21
1907.037589468521
 31
0.0
  0
SPLINE
  5
337
330
1F
100
AcDbEntity
  8
red
100
AcDbSpline
210
0.0
220
0.0
230
1.0
 70
  1064
 71
     3
 72
    11
 73
     7
 74
     5
 42
0.000000001
 43
0.0000000001
 44
0.0000000001
 40
0.0
 40
0.0
 40
0.0
 40
0.0
 40
16.51817682495396
 40
32.79925997116372
 40
45.93638090637802
 40
54.10116806089241
 40
54.10116806089241
 40
54.10116806089241
 40
54.10116806089241
 10
3080.932717117334
 20
1900.827659048599
 30
0.0
 10
3075.431297638659
 20
1900.453656311812
 30
0.0
 10
3064.507423315019
 20
1899.711019087148
 30
0.0
 10
3049.234409889606
 20
1900.531704063302
 30
0.0
 10
3036.610294899864
 20
1900.799937272953
 30
0.0
 10
3029.67953370881
 20
1899.162356864011
 30
0.0
 10
3027.023049148584
 20
1898.534690298599
 30
0.0
 11
3080.932717117334
 21
1900.827659048599
 31
0.0
 11
3064.433205398584
 21
1900.042624868912
 31
0.0
 11
3048.158303054834
 21
1900.491202749771
 31
0.0
 11
3035.025490554834
 21
1900.154776968521
 31
0.0
 11
3027.023049148584
 21
1898.534690298599
 31
0.0
  0
SPLINE
  5
338
330
1F
100
AcDbEntity
  8
red
100
AcDbSpline
210
0.0
220
0.0
230
1.0
 70
  1064
 71
     3
 72
    11
 73
     7
 74
     5
 42
0.000000001
 43
0.0000000001
 44
0.0000000001
 40
0.0
 40
0.0
 40
0.0
 40
0.0
 40
17.96650293089344
 40
36.73286309943762
 40
49.99457513930477
 40
59.76833432380441
 40
59.76833432380441
 40
59.76833432380441
 40
59.76833432380441
 10
3080.932717117334
 20
1900.827659048599
 30
0.0
 10
3075.169641083979
 20
1899.159308919768
 30
0.0
 10
3063.38692055238
 20
1895.748334779726
 30
0.0
 10
3046.734512174284
 20
1894.05925970692
 30
0.0
 10
3032.820177917852
 20
1893.504095080684
 30
0.0
 10
3025.151371681726
 20
1893.101802879362
 30
0.0
 10
3021.897560867334
 20
1892.931113638443
 30
0.0
 11
3080.932717117334
 21
1900.827659048599
 31
0.0
 11
3063.535256179834
 21
1896.341727652115
 31
0.0
 11
3044.903420242334
 21
1894.098746695084
 31
0.0
 11
3031.658791336084
 21
1893.425834097427
 31
0.0
 11
3021.897560867334
 21
1892.931113638443
 31
0.0
  0
SPLINE
  5
339
330
1F
100
AcDbEntity
  8
red
100
AcDbSpline
210
0.0
220
0.0
230
1.0
 70
  1064
 71
     3
 72
     9
 73
     5
 74
     3
 42
0.000000001
 43
0.0000000001
 44
0.0000000001
 40
0.0
 40
0.0
 40
0.0
 40
0.0
 40
22.91143823341387
 40
32.25664516832581
 40
32.25664516832581
 40
32.25664516832581
 40
32.25664516832581
 10
3081.276467117334
 20
1903.44451085524
 30
0.0
 10
3074.653590336251
 20
1907.250584927719
 30
0.0
 10
3065.329348700064
 20
1912.609095362096
 30
0.0
 10
3055.78633153037
 20
1917.564542281912
 30
0.0
 10
3053.021584304834
 20
1919.000205435318
 30
0.0
 11
3081.276467117334
 21
1903.44451085524
 31
0.0
 11
3061.297463211084
 21
1914.659385122818
 31
0.0
 11
3053.021584304834
 21
1919.000205435318
 31
0.0
  0
SPLINE
  5
33A
330
1F
100
AcDbEntity
  8
red
100
AcDbSpline
210
0.0
220
0.0
230
1.0
 70
  1064
 71
     3
 72
     9
 73
     5
 74
     3
 42
0.000000001
 43
0.0000000001
 44
0.0000000001
 40
0.0
 40
0.0
 40
0.0
 40
0.0
 40
30.08362811614158
 40
40.59722743652559
 40
40.59722743652559
 40
40.59722743652559
 40
40.59722743652559
 10
3081.276467117334
 20
1903.44451085524
 30
0.0
 10
3072.417805711431
 20
1908.452237947145
 30
0.0
 10
3060.463227277934
 20
1915.210061003102
 30
0.0
 10
3047.031335971712
 20
1917.279178512443
 30
0.0
 10
3043.552834304834
 20
1917.815024771255
 30
0.0
 11
3081.276467117334
 21
1903.44451085524
 31
0.0
 11
3053.889260086084
 21
1915.893027700943
 31
0.0
 11
3043.552834304834
 21
1917.815024771255
 31
0.0
  0
SPLINE
  5
33B
330
1F
100
AcDbEntity
  8
red
100
AcDbSpline
210
0.0
220
0.0
230
1.0
 70
  1080
 71
     3
 72
     8
 73
     4
 74
     2
 42
0.000000001
 43
0.0000000001
 44
0.0000000001
 40
0.0
 40
0.0
 40
0.0
 40
0.0
 40
25.94225042141707
 40
25.94225042141707
 40
25.94225042141707
 40
25.94225042141707
 10
3080.468361648584
 20
1906.510123648209
 30
0.0
 10
3073.35084862775
 20
1911.421215770604
 30
0.0
 10
3066.233335606917
 20
1916.332307893
 30
0.0
 10
3059.115822586084
 20
1921.243400015396
 30
0.0
 11
3080.468361648584
 21
1906.510123648209
 31
0.0
 11
3059.115822586084
 21
1921.243400015396
 31
0.0
  0
SPLINE
  5
33C
330
1F
100
AcDbEntity
  8
red
100
AcDbSpline
210
0.0
220
0.0
230
1.0
 70
  1080
 71
     3
 72
     8
 73
     4
 74
     2
 42
0.000000001
 43
0.0000000001
 44
0.0000000001
 40
0.0
 40
0.0
 40
0.0
 40
0.0
 40
24.781030233487
 40
24.781030233487
 40
24.781030233487
 40
24.781030233487
 10
3061.678810867334
 20
1922.522117056412
 30
0.0
 10
3068.317482742334
 20
1917.606701610448
 30
0.0
 10
3074.956154617334
 20
1912.691286164484
 30
0.0
 10
3081.594826492334
 20
1907.775870718521
 30
0.0
 11
3061.678810867334
 21
1922.522117056412
 31
0.0
 11
3081.594826492334
 21
1907.775870718521
 31
0.0
  0
SPLINE
  5
33D
330
1F
100
AcDbEntity
  8
red
100
AcDbSpline
210
0.0
220
0.0
230
1.0
 70
  1064
 71
     3
 72
    10
 73
     6
 74
     4
 42
0.000000001
 43
0.0000000001
 44
0.0000000001
 40
0.0
 40
0.0
 40
0.0
 40
0.0
 40
8.455636100186637
 40
19.86727228949218
 40
23.10365495951275
 40
23.10365495951275
 40
23.10365495951275
 40
23.10365495951275
 10
3081.594826492334
 20
1907.775870718521
 30
0.0
 10
3079.852300966506
 20
1909.999290667099
 30
0.0
 10
3075.758081598166
 20
1915.223414436013
 30
0.0
 10
3072.476733771481
 20
1922.266765821546
 30
0.0
 10
3069.590843299901
 20
1926.209598565064
 30
0.0
 10
3068.953224929834
 20
1927.08074132399
 30
0.0
 11
3081.594826492334
 21
1907.775870718521
 31
0.0
 11
3076.597756179834
 21
1914.596946157974
 31
0.0
 11
3070.826760086084
 21
1924.441794790787
 31
0.0
 11
3068.953224929834
 21
1927.08074132399
 31
0.0
  0
SPLINE
  5
33E
330
1F
100
AcDbEntity
  8
red
100
AcDbSpline
210
0.0
220
0.0
230
1.0
 70
  1064
 71
     3
 72
     9
 73
     5
 74
     3
 42
0.000000001
 43
0.0000000001
 44
0.0000000001
 40
0.0
 40
0.0
 40
0.0
 40
0.0
 40
8.3112641107399
 40
16.96362487062405
 40
16.96362487062405
 40
16.96362487062405
 40
16.96362487062405
 10
3090.046974929834
 20
1920.442374624771
 30
0.0
 10
3087.496485817145
 20
1919.039096703258
 30
0.0
 10
3082.290834791287
 20
1916.174949934174
 30
0.0
 10
3076.709291696224
 20
1918.2517481938
 30
0.0
 10
3073.862404617333
 20
1919.311026968521
 30
0.0
 11
3090.046974929834
 21
1920.442374624771
 31
0.0
 11
3082.305275711084
 21
1917.418601431412
 31
0.0
 11
3073.862404617333
 21
1919.311026968521
 31
0.0
  0
SPLINE
  5
33F
330
1F
100
AcDbEntity
  8
red
100
AcDbSpline
210
0.0
220
0.0
230
1.0
 70
     8
 71
     3
 72
    10
 73
     6
 74
     0
 42
0.000000001
 43
0.0000000001
 40
0.0
 40
0.0
 40
0.0
 40
0.0
 40
4.021080526798407
 40
22.60065855103334
 40
22.60084038571884
 40
22.60084038571884
 40
22.60084038571884
 40
22.60084038571884
 10
3094.058205398584
 20
1920.161094107193
 30
0.0
 10
3092.697320744236
 20
1920.186468191922
 30
0.0
 10
3085.048409165548
 20
1920.329084342279
 30
0.0
 10
3079.65575886297
 20
1926.95280810385
 30
0.0
 10
3075.676291569271
 20
1932.218997477495
 30
0.0
 10
3075.67625262343
 20
1932.219049016136
 30
0.0
  0
SPLINE
  5
340
330
1F
100
AcDbEntity
  8
red
100
AcDbSpline
210
0.0
220
0.0
230
1.0
 70
     8
 71
     3
 72
     9
 73
     5
 74
     0
 42
0.000000001
 43
0.0000000001
 40
24.20063075527515
 40
24.20063075527515
 40
24.20063075527515
 40
24.20063075527515
 40
40.75649853702945
 40
46.8633428662263
 40
46.8633428662263
 40
46.8633428662263
 40
46.8633428662263
 10
3074.657024555409
 20
1933.574259607186
 30
0.0
 10
3071.166413614867
 20
1938.227682037784
 30
0.0
 10
3066.679472705355
 20
1944.238043013893
 30
0.0
 10
3059.730905306461
 20
1947.420261234792
 30
0.0
 10
3057.858498367334
 20
1948.277762808365
 30
0.0
  0
SPLINE
  5
341
330
1F
100
AcDbEntity
  8
red
100
AcDbSpline
210
0.0
220
0.0
230
1.0
 70
  1064
 71
     3
 72
     9
 73
     5
 74
     3
 42
0.000000001
 43
0.0000000001
 44
0.0000000001
 40
0.0
 40
0.0
 40
0.0
 40
0.0
 40
13.02433675469323
 40
19.03001439608401
 40
19.03001439608401
 40
19.03001439608401
 40
19.03001439608401
 10
3053.931740554834
 20
1942.995994009537
 30
0.0
 10
3057.362895914759
 20
1940.263003167086
 30
0.0
 10
3062.376198098539
 20
1936.269797520168
 30
0.0
 10
3068.35162202528
 20
1934.063727963533
 30
0.0
 10
3070.237404617334
 20
1933.36751500563
 30
0.0
 11
3053.931740554834
 21
1942.995994009537
 31
0.0
 11
3064.675881179834
 21
1935.634147085709
 31
0.0
 11
3070.237404617334
 21
1933.36751500563
 31
0.0
  0
SPLINE
  5
342
330
1F
100
AcDbEntity
  8
red
100
AcDbSpline
210
0.0
220
0.0
230
1.0
 70
  1064
 71
     3
 72
     9
 73
     5
 74
     3
 42
0.000000001
 43
0.0000000001
 44
0.0000000001
 40
0.0
 40
0.0
 40
0.0
 40
0.0
 40
10.10250905563928
 40
19.81616914322409
 40
19.81616914322409
 40
19.81616914322409
 40
19.81616914322409
 10
3071.282326492334
 20
1928.785270132584
 30
0.0
 10
3073.487614292153
 20
1926.062088276599
 30
0.0
 10
3077.813307623387
 20
1920.720540749273
 30
0.0
 10
3084.608913061897
 20
1919.773285494535
 30
0.0
 10
3087.940041336084
 20
1919.308951773208
 30
0.0
 11
3071.282326492334
 21
1928.785270132584
 31
0.0
 11
3078.540138992334
 21
1921.757834829849
 31
0.0
 11
3087.940041336084
 21
1919.308951773208
 31
0.0
  0
SPLINE
  5
343
330
1F
100
AcDbEntity
  8
red
100
AcDbSpline
210
0.0
220
0.0
230
1.0
 70
  1064
 71
     3
 72
    11
 73
     7
 74
     5
 42
0.000000001
 43
0.0000000001
 44
0.0000000001
 40
0.0
 40
0.0
 40
0.0
 40
0.0
 40
13.14881670275267
 40
26.83002189001219
 40
43.62871957503863
 40
48.16770717610633
 40
48.16770717610633
 40
48.16770717610633
 40
48.16770717610633
 10
3063.813088211084
 20
1956.275199331802
 30
0.0
 10
3067.828235842433
 20
1954.306028099521
 30
0.0
 10
3076.021102263498
 20
1950.28795495563
 30
0.0
 10
3083.835793673654
 20
1937.465738930525
 30
0.0
 10
3088.095442317567
 20
1926.447154465006
 30
0.0
 10
3093.012286249285
 20
1921.263722337186
 30
0.0
 10
3094.058205398584
 20
1920.161094107193
 30
0.0
 11
3063.813088211084
 21
1956.275199331802
 31
0.0
 11
3075.045021804834
 21
1949.438895620865
 31
0.0
 11
3082.924416336084
 21
1938.254508413834
 31
0.0
 11
3091.025490554834
 21
1923.538230337662
 31
0.0
 11
3094.058205398584
 21
1920.161094107193
 31
0.0
  0
SPLINE
  5
344
330
1F
100
AcDbEntity
  8
red
100
AcDbSpline
210
0.0
220
0.0
230
1.0
 70
  1064
 71
     3
 72
    10
 73
     6
 74
     4
 42
0.000000001
 43
0.0000000001
 44
0.0000000001
 40
0.0
 40
0.0
 40
0.0
 40
0.0
 40
15.73307491299215
 40
32.47049312582829
 40
42.97147551028088
 40
42.97147551028088
 40
42.97147551028088
 40
42.97147551028088
 10
3074.731545242334
 20
1957.49788609938
 30
0.0
 10
3078.496017517128
 20
1953.789567618141
 30
0.0
 10
3086.265272529075
 20
1946.136204850888
 30
0.0
 10
3091.939815074165
 20
1932.551845928499
 30
0.0
 10
3093.468763343029
 20
1923.608820496059
 30
0.0
 10
3094.058205398584
 20
1920.161094107193
 30
0.0
 11
3074.731545242334
 21
1957.49788609938
 31
0.0
 11
3085.207619461084
 21
1945.759848990006
 31
0.0
 11
3091.982521804834
 21
1930.454886831802
 31
0.0
 11
3094.058205398584
 21
1920.161094107193
 31
0.0
  0
SPLINE
  5
345
330
1F
100
AcDbEntity
  8
red
100
AcDbSpline
210
0.0
220
0.0
230
1.0
 70
  1064
 71
     3
 72
    11
 73
     7
 74
     5
 42
0.000000001
 43
0.0000000001
 44
0.0000000001
 40
0.0
 40
0.0
 40
0.0
 40
0.0
 40
11.76813975216699
 40
32.99066785414159
 40
43.03971147687381
 40
49.9764202891727
 40
49.9764202891727
 40
49.9764202891727
 40
49.9764202891727
 10
3094.058205398584
 20
1920.161094107193
 30
0.0
 10
3095.906505773222
 20
1923.690469391315
 30
0.0
 10
3101.088009820463
 20
1933.584679536945
 30
0.0
 10
3096.91932369826
 20
1949.510316765795
 30
0.0
 10
3087.877698076168
 20
1958.584705171641
 30
0.0
 10
3083.173267169531
 20
1961.752188345735
 30
0.0
 10
3081.252053054834
 20
1963.045737661881
 30
0.0
 11
3094.058205398584
 21
1920.161094107193
 31
0.0
 11
3098.537209304834
 21
1931.043540396256
 31
0.0
 11
3093.823830398584
 21
1951.736045279068
 31
0.0
 11
3086.901467117334
 21
1959.020560659928
 31
0.0
 11
3081.252053054834
 21
1963.045737661881
 31
0.0
  0
SPLINE
  5
346
330
1F
100
AcDbEntity
  8
red
100
AcDbSpline
210
0.0
220
0.0
230
1.0
 70
  1064
 71
     3
 72
    12
 73
     8
 74
     6
 42
0.000000001
 43
0.0000000001
 44
0.0000000001
 40
0.0
 40
0.0
 40
0.0
 40
0.0
 40
9.749460908892348
 40
22.70300598903816
 40
29.22277695608415
 40
37.75095731919714
 40
41.97912918151007
 40
41.97912918151007
 40
41.97912918151007
 40
41.97912918151007
 10
3084.337013992334
 20
1967.286521353287
 30
0.0
 10
3086.567816281201
 20
1964.9704412511
 30
0.0
 10
3091.762556605594
 20
1959.577119412857
 30
0.0
 10
3097.907047050846
 20
1951.141557381474
 30
0.0
 10
3097.617546252372
 20
1941.700147356426
 30
0.0
 10
3100.406855861284
 20
1935.260958505395
 30
0.0
 10
3104.090984439475
 20
1933.045023915857
 30
0.0
 10
3105.312111648584
 20
1932.310538687271
 30
0.0
 11
3084.337013992334
 21
1967.286521353287
 31
0.0
 11
3090.951760086084
 21
1960.124320425552
 31
0.0
 11
3097.358986648584
 21
1948.866355337662
 31
0.0
 11
3098.076271804834
 21
1942.386161245865
 31
0.0
 11
3101.850685867334
 21
1934.738700308365
 31
0.0
 11
3105.312111648584
 21
1932.310538687271
 31
0.0
  0
SPLINE
  5
347
330
1F
100
AcDbEntity
  8
red
100
AcDbSpline
210
0.0
220
0.0
230
1.0
 70
  1064
 71
     3
 72
    12
 73
     8
 74
     6
 42
0.000000001
 43
0.0000000001
 44
0.0000000001
 40
0.0
 40
0.0
 40
0.0
 40
0.0
 40
8.147536266849238
 40
18.37484907774558
 40
29.96088282582493
 40
41.75851058699804
 40
44.10987895576586
 40
44.10987895576586
 40
44.10987895576586
 40
44.10987895576586
 10
3088.297951492334
 20
1970.899680532974
 30
0.0
 10
3090.207247595252
 20
1969.02689563754
 30
0.0
 10
3094.513215262877
 20
1964.803270398986
 30
0.0
 10
3102.916272402522
 20
1957.864163139599
 30
0.0
 10
3100.836861296426
 20
1945.664399277374
 30
0.0
 10
3103.402645950597
 20
1937.468606030496
 30
0.0
 10
3105.040005099432
 20
1933.045584049195
 30
0.0
 10
3105.312111648584
 20
1932.310538687271
 30
0.0
 11
3088.297951492334
 21
1970.899680532974
 31
0.0
 11
3094.192482742334
 21
1965.275016226334
 31
0.0
 11
3100.893654617334
 21
1957.548942007584
 31
0.0
 11
3101.777443679834
 21
1945.996665396256
 31
0.0
 11
3104.502053054833
 21
1934.517966665787
 31
0.0
 11
3105.312111648584
 21
1932.310538687271
 31
0.0
  0
SPLINE
  5
348
330
1F
100
AcDbEntity
  8
red
100
AcDbSpline
210
0.0
220
0.0
230
1.0
 70
  1064
 71
     3
 72
    12
 73
     8
 74
     6
 42
0.000000001
 43
0.0000000001
 44
0.0000000001
 40
0.0
 40
0.0
 40
0.0
 40
0.0
 40
13.44425909026353
 40
22.62724734156545
 40
30.80667734550397
 40
38.14219395557517
 40
41.8815959686222
 40
41.8815959686222
 40
41.8815959686222
 40
41.8815959686222
 10
3091.991310867334
 20
1973.372580923599
 30
0.0
 10
3095.253481231651
 20
1970.306259802888
 30
0.0
 10
3100.743849663866
 20
1965.145513795156
 30
0.0
 10
3105.413517105925
 20
1955.285125444608
 30
0.0
 10
3103.421002364236
 20
1947.071659800039
 30
0.0
 10
3104.739947318298
 20
1940.421842216051
 30
0.0
 10
3107.101617285043
 20
1937.550897717463
 30
0.0
 10
3107.899025711084
 20
1936.581534781021
 30
0.0
 11
3091.991310867334
 21
1973.372580923599
 31
0.0
 11
3101.050392898584
 21
1963.438743032974
 31
0.0
 11
3104.437599929834
 21
1954.903281607193
 31
0.0
 11
3103.996193679834
 21
1946.735770620865
 31
0.0
 11
3105.689553054834
 21
1939.598380484146
 31
0.0
 11
3107.899025711084
 21
1936.581534781021
 31
0.0
  0
SPLINE
  5
349
330
1F
100
AcDbEntity
  8
red
100
AcDbSpline
210
0.0
220
0.0
230
1.0
 70
  1064
 71
     3
 72
     9
 73
     5
 74
     3
 42
0.000000001
 43
0.0000000001
 44
0.0000000001
 40
0.0
 40
0.0
 40
0.0
 40
0.0
 40
4.804887070038919
 40
9.691477904128898
 40
9.691477904128898
 40
9.691477904128898
 40
9.691477904128898
 10
3107.899025711084
 20
1936.581534781021
 30
0.0
 10
3106.461364411102
 20
1937.412408760827
 30
0.0
 10
3103.561595380261
 20
1939.088285154806
 30
0.0
 10
3102.509232802179
 20
1942.27037901341
 30
0.0
 10
3101.978615554834
 20
1943.87483922438
 30
0.0
 11
3107.899025711084
 21
1936.581534781021
 31
0.0
 11
3104.040138992333
 21
1939.444388784927
 31
0.0
 11
3101.978615554834
 21
1943.87483922438
 31
0.0
  0
SPLINE
  5
34A
330
1F
100
AcDbEntity
  8
red
100
AcDbSpline
210
0.0
220
0.0
230
1.0
 70
  1064
 71
     3
 72
     9
 73
     5
 74
     3
 42
0.000000001
 43
0.0000000001
 44
0.0000000001
 40
0.0
 40
0.0
 40
0.0
 40
0.0
 40
9.725792400100301
 40
23.74167137923734
 40
23.74167137923734
 40
23.74167137923734
 40
23.74167137923734
 10
3094.962502273584
 20
1975.569419302505
 30
0.0
 10
3097.222486283369
 20
1973.15037011886
 30
0.0
 10
3102.739342440211
 20
1967.245219319247
 30
0.0
 10
3103.829607343326
 20
1959.146584967112
 30
0.0
 10
3104.473244461084
 20
1954.36556188063
 30
0.0
 11
3094.962502273584
 21
1975.569419302505
 31
0.0
 11
3100.999611648584
 21
1967.94417516188
 31
0.0
 11
3104.473244461084
 21
1954.36556188063
 31
0.0
  0
SPLINE
  5
34B
330
1F
100
AcDbEntity
  8
red
100
AcDbSpline
210
0.0
220
0.0
230
1.0
 70
  1064
 71
     3
 72
     9
 73
     5
 74
     3
 42
0.000000001
 43
0.0000000001
 44
0.0000000001
 40
0.0
 40
0.0
 40
0.0
 40
0.0
 40
12.20806307544044
 40
24.14852374007812
 40
24.14852374007812
 40
24.14852374007812
 40
24.14852374007812
 10
3096.963967117334
 20
1977.621604361099
 30
0.0
 10
3099.648244740957
 20
1974.356189832516
 30
0.0
 10
3104.957960255895
 20
1967.896939108022
 30
0.0
 10
3104.537560377441
 20
1959.554045595149
 30
0.0
 10
3104.329689773584
 20
1955.428824820083
 30
0.0
 11
3096.963967117334
 21
1977.621604361099
 31
0.0
 11
3103.552346023584
 21
1967.343955435318
 31
0.0
 11
3104.329689773584
 21
1955.428824820083
 31
0.0
  0
SPLINE
  5
34C
330
1F
100
AcDbEntity
  8
red
100
AcDbSpline
210
0.0
220
0.0
230
1.0
 70
  1064
 71
     3
 72
     9
 73
     5
 74
     3
 42
0.000000001
 43
0.0000000001
 44
0.0000000001
 40
0.0
 40
0.0
 40
0.0
 40
0.0
 40
5.754562620508706
 40
9.370619255852457
 40
9.370619255852457
 40
9.370619255852457
 40
9.370619255852457
 10
3104.301369461084
 20
1950.763663687271
 30
0.0
 10
3104.451721679995
 20
1948.787134529247
 30
0.0
 10
3104.696552345781
 20
1945.568592407224
 30
0.0
 10
3106.714185243537
 20
1943.105750372026
 30
0.0
 10
3107.492775711083
 20
1942.155356802506
 30
0.0
 11
3104.301369461084
 21
1950.763663687271
 31
0.0
 11
3105.420998367334
 21
1945.119071402115
 31
0.0
 11
3107.492775711083
 21
1942.155356802506
 31
0.0
  0
SPLINE
  5
34D
330
1F
100
AcDbEntity
  8
red
100
AcDbSpline
210
0.0
220
0.0
230
1.0
 70
  1064
 71
     3
 72
    11
 73
     7
 74
     5
 42
0.000000001
 43
0.0000000001
 44
0.0000000001
 40
0.0
 40
0.0
 40
0.0
 40
0.0
 40
11.30736037830893
 40
26.51104296472706
 40
37.16143040253407
 40
41.7344814752469
 40
41.7344814752469
 40
41.7344814752469
 40
41.7344814752469
 10
3099.325295242334
 20
1981.355613150162
 30
0.0
 10
3102.020374317101
 20
1978.560414310329
 30
0.0
 10
3108.339210433933
 20
1972.006839111656
 30
0.0
 10
3108.364018557493
 20
1958.641889927822
 30
0.0
 10
3106.354468623486
 20
1948.701273918937
 30
0.0
 10
3107.229823210029
 20
1943.667484150403
 30
0.0
 10
3107.492775711083
 20
1942.155356802506
 30
0.0
 11
3099.325295242334
 21
1981.355613150162
 31
0.0
 11
3106.264260086084
 21
1972.427726187271
 31
0.0
 11
3107.770607742334
 21
1957.298850454849
 31
0.0
 11
3106.873635086083
 21
1946.686301626724
 31
0.0
 11
3107.492775711083
 21
1942.155356802506
 31
0.0
  0
SPLINE
  5
34E
330
1F
100
AcDbEntity
  8
red
100
AcDbSpline
210
0.0
220
0.0
230
1.0
 70
  1064
 71
     3
 72
    11
 73
     7
 74
     5
 42
0.000000001
 43
0.0000000001
 44
0.0000000001
 40
0.0
 40
0.0
 40
0.0
 40
0.0
 40
10.73294422381487
 40
20.61487571564539
 40
31.19184367748031
 40
42.64686120883776
 40
42.64686120883776
 40
42.64686120883776
 40
42.64686120883776
 10
3102.447853836084
 20
1988.664023794693
 30
0.0
 10
3104.851705975992
 20
1985.998825737986
 30
0.0
 10
3109.46880936064
 20
1980.87975257867
 30
0.0
 10
3113.44782067897
 20
1970.840600343182
 30
0.0
 10
3111.775119703561
 20
1959.94788529259
 30
0.0
 10
3108.566365918167
 20
1953.338391260408
 30
0.0
 10
3106.898049148584
 20
1949.901938833755
 30
0.0
 11
3102.447853836084
 21
1988.664023794693
 31
0.0
 11
3109.120705398584
 21
1980.257529654068
 31
0.0
 11
3112.500099929834
 21
1970.971396841568
 31
0.0
 11
3111.347756179834
 21
1960.457389273209
 31
0.0
 11
3106.898049148584
 21
1949.901938833755
 31
0.0
  0
SPLINE
  5
34F
330
1F
100
AcDbEntity
  8
red
100
AcDbSpline
210
0.0
220
0.0
230
1.0
 70
  1064
 71
     3
 72
    12
 73
     8
 74
     6
 42
0.000000001
 43
0.0000000001
 44
0.0000000001
 40
0.0
 40
0.0
 40
0.0
 40
0.0
 40
9.857903972504566
 40
23.23457577082252
 40
34.5776992453229
 40
40.55540322319639
 40
45.94123058818365
 40
45.94123058818365
 40
45.94123058818365
 40
45.94123058818365
 10
3104.665138992334
 20
1993.805167593521
 30
0.0
 10
3107.01579261861
 20
1991.502484250366
 30
0.0
 10
3112.556163060747
 20
1986.075177313521
 30
0.0
 10
3117.166590517616
 20
1974.664151914474
 30
0.0
 10
3115.003429904393
 20
1964.412264950736
 30
0.0
 10
3112.090667001212
 20
1957.254913814665
 30
0.0
 10
3112.685141393378
 20
1953.439892820789
 30
0.0
 10
3112.966896804834
 20
1951.631736197037
 30
0.0
 11
3104.665138992334
 21
1993.805167593521
 31
0.0
 11
3111.277443679834
 21
1986.49382726149
 31
0.0
 11
3115.962502273584
 21
1973.964438833755
 31
0.0
 11
3114.195900711084
 21
1962.759726919693
 31
0.0
 11
3112.582619461084
 21
1957.003837027115
 31
0.0
 11
3112.966896804834
 21
1951.631736197037
 31
0.0
  0
SPLINE
  5
350
330
1F
100
AcDbEntity
  8
red
100
AcDbSpline
210
0.0
220
0.0
230
1.0
 70
  1080
 71
     3
 72
     8
 73
     4
 74
     2
 42
0.000000001
 43
0.0000000001
 44
0.0000000001
 40
0.0
 40
0.0
 40
0.0
 40
0.0
 40
8.149297864541519
 40
8.149297864541519
 40
8.149297864541519
 40
8.149297864541519
 10
3111.063088211084
 20
1959.555533804459
 30
0.0
 10
3111.697691075667
 20
1956.914267935318
 30
0.0
 10
3112.33229394025
 20
1954.273002066177
 30
0.0
 10
3112.966896804834
 20
1951.631736197037
 30
0.0
 11
3111.063088211084
 21
1959.555533804459
 31
0.0
 11
3112.966896804834
 21
1951.631736197037
 31
0.0
  0
SPLINE
  5
351
330
1F
100
AcDbEntity
  8
red
100
AcDbSpline
210
0.0
220
0.0
230
1.0
 70
  1064
 71
     3
 72
    12
 73
     8
 74
     6
 42
0.000000001
 43
0.0000000001
 44
0.0000000001
 40
0.0
 40
0.0
 40
0.0
 40
0.0
 40
12.62551725916611
 40
22.63558858096329
 40
33.22682801733762
 40
39.93448647938405
 40
45.3325345215256
 40
45.3325345215256
 40
45.3325345215256
 40
45.3325345215256
 10
3107.582619461084
 20
1996.809623159927
 30
0.0
 10
3111.183569045627
 20
1994.270073600161
 30
0.0
 10
3117.639511532841
 20
1989.717056259498
 30
0.0
 10
3119.692690086659
 20
1978.33209324523
 30
0.0
 10
3120.02071735577
 20
1968.960538189836
 30
0.0
 10
3115.431423796021
 20
1962.345109481793
 30
0.0
 10
3115.944944401643
 20
1958.222174989407
 30
0.0
 10
3116.173928054834
 20
1956.383719839615
 30
0.0
 11
3107.582619461084
 21
1996.809623159927
 31
0.0
 11
3116.812111648584
 21
1988.19451085524
 31
0.0
 11
3119.414650711084
 21
1978.528678335709
 31
0.0
 11
3118.678322586084
 21
1967.96306554274
 31
0.0
 11
3116.075783523584
 21
1961.780875601334
 31
0.0
 11
3116.173928054834
 21
1956.383719839615
 31
0.0
  0
SPLINE
  5
352
330
1F
100
AcDbEntity
  8
red
100
AcDbSpline
210
0.0
220
0.0
230
1.0
 70
  1064
 71
     3
 72
     9
 73
     5
 74
     3
 42
0.000000001
 43
0.0000000001
 44
0.0000000001
 40
0.0
 40
0.0
 40
0.0
 40
0.0
 40
3.535884823329848
 40
8.3960739722077
 40
8.3960739722077
 40
8.3960739722077
 40
8.3960739722077
 10
3116.173928054834
 20
1956.383719839615
 30
0.0
 10
3115.665277826425
 20
1957.465944587837
 30
0.0
 10
3114.45747124983
 20
1960.035722590977
 30
0.0
 10
3114.645905084902
 20
1962.88769244782
 30
0.0
 10
3114.754982742334
 20
1964.538596548599
 30
0.0
 11
3116.173928054834
 21
1956.383719839615
 31
0.0
 11
3114.895607742333
 21
1959.680442251724
 31
0.0
 11
3114.754982742334
 21
1964.538596548599
 31
0.0
  0
SPLINE
  5
353
330
1F
100
AcDbEntity
  8
red
100
AcDbSpline
210
0.0
220
0.0
230
1.0
 70
  1064
 71
     3
 72
    13
 73
     9
 74
     7
 42
0.000000001
 43
0.0000000001
 44
0.0000000001
 40
0.0
 40
0.0
 40
0.0
 40
0.0
 40
7.661409883612842
 40
17.64894295666857
 40
22.67668430209236
 40
33.01846216054786
 40
38.26769716230616
 40
41.43329343523183
 40
41.43329343523183
 40
41.43329343523183
 40
41.43329343523183
 10
3109.256447586084
 20
1998.211539663834
 30
0.0
 10
3111.410501412061
 20
1996.766144836732
 30
0.0
 10
3116.372613305014
 20
1993.436510834517
 30
0.0
 10
3119.836824859618
 20
1986.544462480954
 30
0.0
 10
3123.929772706885
 20
1978.943742861957
 30
0.0
 10
3122.573277947878
 20
1971.957971719563
 30
0.0
 10
3120.657443480625
 20
1965.390863642502
 30
0.0
 10
3117.892710687254
 20
1964.418582570754
 30
0.0
 10
3116.852638992334
 20
1964.052817740006
 30
0.0
 11
3109.256447586084
 21
1998.211539663834
 31
0.0
 11
3115.291603836084
 21
1993.491996206802
 31
0.0
 11
3120.651955398584
 21
1985.064811148209
 31
0.0
 11
3122.698342117334
 21
1980.472373404068
 31
0.0
 11
3121.988869461084
 21
1970.15496007399
 31
0.0
 11
3119.703224929834
 21
1965.429465689224
 31
0.0
 11
3116.852638992334
 21
1964.052817740006
 31
0.0
  0
SPLINE
  5
354
330
1F
100
AcDbEntity
  8
red
100
AcDbSpline
210
0.0
220
0.0
230
1.0
 70
  1064
 71
     3
 72
    11
 73
     7
 74
     5
 42
0.000000001
 43
0.0000000001
 44
0.0000000001
 40
0.0
 40
0.0
 40
0.0
 40
0.0
 40
11.43538744821022
 40
23.47349824697675
 40
32.4551364515939
 40
41.24073108061894
 40
41.24073108061894
 40
41.24073108061894
 40
41.24073108061894
 10
3111.972756179834
 20
2001.152823843521
 30
0.0
 10
3115.039226601755
 20
1998.866009338506
 30
0.0
 10
3121.333791468872
 20
1994.171849519457
 30
0.0
 10
3127.464149305549
 20
1984.811136692996
 30
0.0
 10
3127.726430967383
 20
1973.940535909808
 30
0.0
 10
3123.323673188478
 20
1969.636216898567
 30
0.0
 10
3121.146584304834
 20
1967.507804312271
 30
0.0
 11
3111.972756179834
 21
2001.152823843521
 31
0.0
 11
3120.730568679834
 21
1993.799674429459
 31
0.0
 11
3126.799904617334
 21
1983.403556265396
 31
0.0
 11
3126.563088211084
 21
1974.425040640396
 31
0.0
 11
3121.146584304834
 21
1967.507804312271
 31
0.0
  0
SPLINE
  5
355
330
1F
100
AcDbEntity
  8
red
100
AcDbSpline
210
0.0
220
0.0
230
1.0
 70
  1064
 71
     3
 72
    12
 73
     8
 74
     6
 42
0.000000001
 43
0.0000000001
 44
0.0000000001
 40
0.0
 40
0.0
 40
0.0
 40
0.0
 40
5.086428837181565
 40
18.45911684924132
 40
35.29003917839917
 40
49.63165686644754
 40
56.61176884027651
 40
56.61176884027651
 40
56.61176884027651
 40
56.61176884027651
 10
3121.146584304834
 20
1967.507804312271
 30
0.0
 10
3122.847889726664
 20
1967.037173159599
 30
0.0
 10
3129.022083170254
 20
1965.329209533615
 30
0.0
 10
3138.787209741926
 20
1977.443395929179
 30
0.0
 10
3133.358037916454
 20
1993.178532450195
 30
0.0
 10
3122.63449393229
 20
2000.942371472781
 30
0.0
 10
3115.787135411794
 20
2002.894332467417
 30
0.0
 10
3113.545510086084
 20
2003.533347525162
 30
0.0
 11
3121.146584304834
 21
1967.507804312271
 31
0.0
 11
3126.169533523583
 21
1966.70671788649
 31
0.0
 11
3135.470314773584
 21
1976.31526891188
 31
0.0
 11
3131.608010086084
 21
1992.697043814224
 31
0.0
 11
3120.178810867334
 21
2001.360495962662
 31
0.0
 11
3113.545510086084
 21
2003.533347525162
 31
0.0
  0
SPLINE
  5
356
330
1F
100
AcDbEntity
  8
red
100
AcDbSpline
210
0.0
220
0.0
230
1.0
 70
  1064
 71
     3
 72
    10
 73
     6
 74
     4
 42
0.000000001
 43
0.0000000001
 44
0.0000000001
 40
0.0
 40
0.0
 40
0.0
 40
0.0
 40
12.18500433890436
 40
26.46509421701655
 40
39.85255386299866
 40
39.85255386299866
 40
39.85255386299866
 40
39.85255386299866
 10
3112.696877273584
 20
2002.169883169693
 30
0.0
 10
3116.32116543351
 20
2000.484719379067
 30
0.0
 10
3124.192900638052
 20
1996.82464530362
 30
0.0
 10
3133.796785466614
 20
1983.991286495468
 30
0.0
 10
3127.889963932028
 20
1975.728357934738
 30
0.0
 10
3125.031838211084
 20
1971.730185904068
 30
0.0
 11
3112.696877273584
 21
2002.169883169693
 31
0.0
 11
3123.253029617334
 21
1996.08367101149
 31
0.0
 11
3130.662209304834
 21
1983.876090445084
 31
0.0
 11
3125.031838211084
 21
1971.730185904068
 31
0.0
  0
SPLINE
  5
357
330
1F
100
AcDbEntity
  8
red
100
AcDbSpline
210
0.0
220
0.0
230
1.0
 70
  1064
 71
     3
 72
    13
 73
     9
 74
     7
 42
0.000000001
 43
0.0000000001
 44
0.0000000001
 40
0.0
 40
0.0
 40
0.0
 40
0.0
 40
6.744994527395442
 40
19.86326531866614
 40
30.76905280157947
 40
41.79636477607163
 40
51.88860739606893
 40
54.88642686439519
 40
54.88642686439519
 40
54.88642686439519
 40
54.88642686439519
 10
3117.307717117334
 20
2002.410849966568
 30
0.0
 10
3119.610249671578
 20
2002.679761836946
 30
0.0
 10
3126.390954213895
 20
2003.471677650512
 30
0.0
 10
3134.692135096804
 20
1995.668353244236
 30
0.0
 10
3141.616593404231
 20
1986.178755913373
 30
0.0
 10
3142.108346907152
 20
1974.898870419962
 30
0.0
 10
3135.459194285417
 20
1967.133518111324
 30
0.0
 10
3131.066216061987
 20
1968.036956835604
 30
0.0
 10
3130.060158523584
 20
1968.243857779068
 30
0.0
 11
3117.307717117334
 21
2002.410849966568
 31
0.0
 11
3124.051369461084
 21
2002.545401968522
 31
0.0
 11
3134.771584304834
 21
1994.984580435318
 31
0.0
 11
3140.604592117334
 21
1985.769797720474
 31
0.0
 11
3140.446877273584
 21
1974.743613638443
 31
0.0
 11
3133.037209304834
 21
1967.891593374771
 31
0.0
 11
3130.060158523584
 21
1968.243857779068
 31
0.0
  0
SPLINE
  5
358
330
1F
100
AcDbEntity
  8
red
100
AcDbSpline
210
0.0
220
0.0
230
1.0
 70
  1064
 71
     3
 72
    13
 73
     9
 74
     7
 42
0.000000001
 43
0.0000000001
 44
0.0000000001
 40
0.0
 40
0.0
 40
0.0
 40
0.0
 40
8.191957222377542
 40
23.44103864075332
 40
36.24125661217531
 40
46.66067142153209
 40
57.1630625713886
 40
62.3822759895075
 40
62.3822759895075
 40
62.3822759895075
 40
62.3822759895075
 10
3118.946877273584
 20
2002.593528189224
 30
0.0
 10
3121.544213173169
 20
2003.81683326287
 30
0.0
 10
3128.976411551705
 20
2007.317283853898
 30
0.0
 10
3140.374122789341
 20
1998.56344509332
 30
0.0
 10
3147.042984826758
 20
1987.469634894127
 30
0.0
 10
3146.89168463139
 20
1975.91362759212
 30
0.0
 10
3140.900993459503
 20
1967.203529058525
 30
0.0
 10
3135.457212981271
 20
1967.776808655916
 30
0.0
 10
3133.650002273584
 20
1967.967124380631
 30
0.0
 11
3118.946877273584
 21
2002.593528189224
 31
0.0
 11
3126.731545242334
 21
2005.144431509537
 31
0.0
 11
3139.974221023584
 21
1997.583609976334
 31
0.0
 11
3146.200783523584
 21
1986.399894156021
 31
0.0
 11
3145.726174148584
 21
1975.991294302506
 31
0.0
 11
3138.868752273584
 21
1968.036673941177
 31
0.0
 11
3133.650002273584
 21
1967.967124380631
 31
0.0
  0
SPLINE
  5
359
330
1F
100
AcDbEntity
  8
red
100
AcDbSpline
210
0.0
220
0.0
230
1.0
 70
  1064
 71
     3
 72
    11
 73
     7
 74
     5
 42
0.000000001
 43
0.0000000001
 44
0.0000000001
 40
0.0
 40
0.0
 40
0.0
 40
0.0
 40
11.1382066743921
 40
18.85582402732685
 40
30.35771802537939
 40
37.51135103681708
 40
37.51135103681708
 40
37.51135103681708
 40
37.51135103681708
 10
3140.068459304834
 20
1997.477439322037
 30
0.0
 10
3143.523622587413
 20
1995.532534567542
 30
0.0
 10
3149.37285422286
 20
1992.240013350013
 30
0.0
 10
3151.27976205306
 20
1981.990154407363
 30
0.0
 10
3150.011335038473
 20
1971.555530059464
 30
0.0
 10
3143.59095848243
 20
1969.825189070632
 30
0.0
 10
3141.129006179834
 20
1969.161673941177
 30
0.0
 11
3140.068459304834
 21
1997.477439322037
 31
0.0
 11
3148.806252273584
 21
1990.57015172438
 31
0.0
 11
3150.698342117334
 21
1983.08806554274
 31
0.0
 11
3147.702736648584
 21
1971.983115591568
 31
0.0
 11
3141.129006179834
 21
1969.161673941177
 31
0.0
  0
SPLINE
  5
35A
330
1F
100
AcDbEntity
  8
red
100
AcDbSpline
210
0.0
220
0.0
230
1.0
 70
  1064
 71
     3
 72
    12
 73
     8
 74
     6
 42
0.000000001
 43
0.0000000001
 44
0.0000000001
 40
0.0
 40
0.0
 40
0.0
 40
0.0
 40
12.50350974017202
 40
23.49541979962876
 40
32.88502358919483
 40
42.30068344204922
 40
51.19594747958443
 40
51.19594747958443
 40
51.19594747958443
 40
51.19594747958443
 10
3140.068459304834
 20
1997.477439322037
 30
0.0
 10
3144.253615476498
 20
1996.311917695359
 30
0.0
 10
3152.117967424361
 20
1994.121779048418
 30
0.0
 10
3157.50347878299
 20
1983.152419477254
 30
0.0
 10
3156.175461219751
 20
1973.200943049878
 30
0.0
 10
3149.117501110176
 20
1964.613612487208
 30
0.0
 10
3142.882511343049
 20
1967.16393375011
 30
0.0
 10
3139.853615554834
 20
1968.402854361099
 30
0.0
 11
3140.068459304834
 21
1997.477439322037
 31
0.0
 11
3151.486428054834
 21
1992.381583609146
 31
0.0
 11
3156.530861648584
 21
1982.615531363052
 31
0.0
 11
3155.191017898584
 21
1973.322013296646
 31
0.0
 11
3148.569924148584
 21
1966.627555288834
 31
0.0
 11
3139.853615554834
 21
1968.402854361099
 31
0.0
  0
SPLINE
  5
35B
330
1F
100
AcDbEntity
  8
red
100
AcDbSpline
210
0.0
220
0.0
230
1.0
 70
  1064
 71
     3
 72
    10
 73
     6
 74
     4
 42
0.000000001
 43
0.0000000001
 44
0.0000000001
 40
0.0
 40
0.0
 40
0.0
 40
0.0
 40
8.818348647847203
 40
19.87266069589997
 40
30.44586773158624
 40
30.44586773158624
 40
30.44586773158624
 40
30.44586773158624
 10
3151.143166336084
 20
1992.682212271256
 30
0.0
 10
3153.80395281777
 20
1991.156889400224
 30
0.0
 10
3159.800189646952
 20
1987.719485745842
 30
0.0
 10
3160.488626949972
 20
1975.235973014909
 30
0.0
 10
3154.554159469905
 20
1970.631402983468
 30
0.0
 10
3151.652931961084
 20
1968.380332388443
 30
0.0
 11
3151.143166336084
 21
1992.682212271256
 31
0.0
 11
3158.033303054834
 21
1987.178641714615
 31
0.0
 11
3158.821388992334
 21
1976.152457632584
 31
0.0
 11
3151.652931961084
 21
1968.380332388443
 31
0.0
  0
SPLINE
  5
35C
330
1F
100
AcDbEntity
  8
red
100
AcDbSpline
210
0.0
220
0.0
230
1.0
 70
  1064
 71
     3
 72
    12
 73
     8
 74
     6
 42
0.000000001
 43
0.0000000001
 44
0.0000000001
 40
0.0
 40
0.0
 40
0.0
 40
0.0
 40
6.070461291698297
 40
15.55148865362655
 40
25.69509920850323
 40
34.23475066628181
 40
37.87034022375151
 40
37.87034022375151
 40
37.87034022375151
 40
37.87034022375151
 10
3148.464455398584
 20
1966.600730337662
 30
0.0
 10
3150.394946025219
 20
1965.837935966811
 30
0.0
 10
3155.3405344465
 20
1963.883786614183
 30
0.0
 10
3164.322381781498
 20
1968.53789039254
 30
0.0
 10
3166.497278833115
 20
1978.531302112358
 30
0.0
 10
3162.81482478122
 20
1986.279917074783
 30
0.0
 10
3158.824456817447
 20
1987.415412981244
 30
0.0
 10
3157.632912429834
 20
1987.754477896255
 30
0.0
 11
3148.464455398584
 21
1966.600730337662
 31
0.0
 11
3154.330666336084
 21
1965.039298452896
 31
0.0
 11
3162.843361648584
 21
1969.213492788833
 31
0.0
 11
3165.287209304834
 21
1979.058310904068
 31
0.0
 11
3161.030861648584
 21
1986.461631216568
 31
0.0
 11
3157.632912429834
 21
1987.754477896255
 31
0.0
  0
SPLINE
  5
35D
330
1F
100
AcDbEntity
  8
red
100
AcDbSpline
210
0.0
220
0.0
230
1.0
 70
  1064
 71
     3
 72
    13
 73
     9
 74
     7
 42
0.000000001
 43
0.0000000001
 44
0.0000000001
 40
0.0
 40
0.0
 40
0.0
 40
0.0
 40
1.802730475831697
 40
6.574624544787131
 40
12.52755335380468
 40
19.66368785186517
 40
26.88331406024666
 40
30.93662814056087
 40
30.93662814056087
 40
30.93662814056087
 40
30.93662814056087
 10
3150.163185867334
 20
1965.94402257399
 30
0.0
 10
3150.031392971848
 20
1965.305657948969
 30
0.0
 10
3149.550739420412
 20
1962.977518613414
 30
0.0
 10
3155.004741986277
 20
1961.535210532058
 30
0.0
 10
3160.642820518647
 20
1961.523493605822
 30
0.0
 10
3166.400247084731
 20
1966.619945428512
 30
0.0
 10
3167.007241931263
 20
1973.20509138569
 30
0.0
 10
3165.724865027086
 20
1976.743765152516
 30
0.0
 10
3165.263771804834
 20
1978.016135611099
 30
0.0
 11
3150.163185867334
 21
1965.94402257399
 31
0.0
 11
3150.019142898584
 21
1964.147056021255
 31
0.0
 11
3154.236428054834
 21
1961.91423741774
 31
0.0
 11
3160.182228836084
 21
1962.205466665787
 31
0.0
 11
3165.487892898584
 21
1966.97771398024
 31
0.0
 11
3166.433205398584
 21
1974.135184683365
 31
0.0
 11
3165.263771804834
 21
1978.016135611099
 31
0.0
  0
SPLINE
  5
35E
330
1F
100
AcDbEntity
  8
red
100
AcDbSpline
210
0.0
220
0.0
230
1.0
 70
  1064
 71
     3
 72
    12
 73
     8
 74
     6
 42
0.000000001
 43
0.0000000001
 44
0.0000000001
 40
0.0
 40
0.0
 40
0.0
 40
0.0
 40
1.435864609634008
 40
4.218441765444542
 40
9.504490751280716
 40
15.45009668694781
 40
21.19615736887647
 40
21.19615736887647
 40
21.19615736887647
 40
21.19615736887647
 10
3156.036721023584
 20
1961.690452017349
 30
0.0
 10
3155.924552580181
 20
1961.209926098692
 30
0.0
 10
3155.595011728461
 20
1959.79818393927
 30
0.0
 10
3158.158557206649
 20
1956.916894961312
 30
0.0
 10
3163.238862932043
 20
1958.323442685978
 30
0.0
 10
3168.232800128505
 20
1962.457698091706
 30
0.0
 10
3166.816025759584
 20
1966.501064182701
 30
0.0
 10
3166.119728836084
 20
1968.488242544693
 30
0.0
 11
3156.036721023584
 21
1961.690452017349
 31
0.0
 11
3155.870217117334
 21
1960.264274038834
 31
0.0
 11
3157.572365554834
 21
1958.063041128677
 31
0.0
 11
3162.829689773584
 21
1958.613364615005
 31
0.0
 11
3167.035744461084
 21
1962.815665640396
 31
0.0
 11
3166.119728836084
 21
1968.488242544693
 31
0.0
  0
SPLINE
  5
35F
330
1F
100
AcDbEntity
  8
red
100
AcDbSpline
210
0.0
220
0.0
230
1.0
 70
  1064
 71
     3
 72
    12
 73
     8
 74
     6
 42
0.000000001
 43
0.0000000001
 44
0.0000000001
 40
0.0
 40
0.0
 40
0.0
 40
0.0
 40
4.928463079589342
 40
11.99100929209287
 40
18.47878765432849
 40
24.79451862317191
 40
29.46135404315859
 40
29.46135404315859
 40
29.46135404315859
 40
29.46135404315859
 10
3166.588478836084
 20
1970.788627066177
 30
0.0
 10
3167.720625136381
 20
1969.529525019328
 30
0.0
 10
3170.475150550822
 20
1966.466114763504
 30
0.0
 10
3169.736111815601
 20
1959.524161876179
 30
0.0
 10
3165.570483780259
 20
1954.250778393967
 30
0.0
 10
3157.9104856032
 20
1953.100570223047
 30
0.0
 10
3156.984430131102
 20
1957.122343922105
 30
0.0
 10
3156.590920242334
 20
1958.831321157974
 30
0.0
 11
3166.588478836084
 21
1970.788627066177
 31
0.0
 11
3169.438576492334
 21
1966.767844595474
 31
0.0
 11
3169.088478836084
 21
1959.713981070084
 31
0.0
 11
3164.782326492334
 21
1954.861319937271
 31
0.0
 11
3158.473732742334
 21
1954.561149038834
 31
0.0
 11
3156.590920242334
 21
1958.831321157974
 31
0.0
  0
SPLINE
  5
360
330
1F
100
AcDbEntity
  8
red
100
AcDbSpline
210
0.0
220
0.0
230
1.0
 70
  1064
 71
     3
 72
    11
 73
     7
 74
     5
 42
0.000000001
 43
0.0000000001
 44
0.0000000001
 40
0.0
 40
0.0
 40
0.0
 40
0.0
 40
2.492140115538574
 40
5.304329220561975
 40
11.42239708868619
 40
17.24470870517626
 40
17.24470870517626
 40
17.24470870517626
 40
17.24470870517626
 10
3158.543556961084
 20
1954.50862828688
 30
0.0
 10
3158.54476968822
 20
1953.507896038207
 30
0.0
 10
3158.547350884976
 20
1951.377914150149
 30
0.0
 10
3163.318878391792
 20
1952.245819962469
 30
0.0
 10
3167.979860533391
 20
1954.022423279204
 30
0.0
 10
3168.862292888836
 20
1958.213274227631
 30
0.0
 10
3169.292580398584
 20
1960.256797232193
 30
0.0
 11
3158.543556961084
 21
1954.50862828688
 31
0.0
 11
3159.035744461084
 21
1952.065574087662
 31
0.0
 11
3161.847756179834
 21
1952.033988394302
 31
0.0
 11
3167.314553054834
 21
1954.780784048599
 31
0.0
 11
3169.292580398584
 21
1960.256797232193
 31
0.0
  0
SPLINE
  5
361
330
1F
100
AcDbEntity
  8
red
100
AcDbSpline
210
0.0
220
0.0
230
1.0
 70
  1064
 71
     3
 72
    11
 73
     7
 74
     5
 42
0.000000001
 43
0.0000000001
 44
0.0000000001
 40
0.0
 40
0.0
 40
0.0
 40
0.0
 40
1.614687098096454
 40
3.207013248069287
 40
7.192032522657103
 40
12.20820504480693
 40
12.20820504480693
 40
12.20820504480693
 40
12.20820504480693
 10
3160.189553054834
 20
1951.765921988052
 30
0.0
 10
3160.114814422477
 20
1951.227056154845
 30
0.0
 10
3159.966372173578
 20
1950.156786956517
 30
0.0
 10
3161.439916770792
 20
1947.774604864748
 30
0.0
 10
3165.809138677576
 20
1950.174025409511
 30
0.0
 10
3166.649474468453
 20
1952.984809940478
 30
0.0
 10
3167.117775711084
 20
1954.551200308365
 30
0.0
 11
3160.189553054834
 21
1951.765921988052
 31
0.0
 11
3160.169533523584
 21
1950.151358999771
 31
0.0
 11
3161.044045242334
 21
1948.820670523209
 31
0.0
 11
3164.820900711084
 21
1950.091788687271
 31
0.0
 11
3167.117775711084
 21
1954.551200308365
 31
0.0
  0
SPLINE
  5
362
330
1F
100
AcDbEntity
  8
red
100
AcDbSpline
210
0.0
220
0.0
230
1.0
 70
  1064
 71
     3
 72
    13
 73
     9
 74
     7
 42
0.000000001
 43
0.0000000001
 44
0.0000000001
 40
0.0
 40
0.0
 40
0.0
 40
0.0
 40
4.803146491319858
 40
10.04613476723933
 40
14.51800160175375
 40
16.18276216610456
 40
17.83138386410925
 40
19.09013771822196
 40
19.09013771822196
 40
19.09013771822196
 40
19.09013771822196
 10
3168.647560867334
 20
1957.554404654068
 30
0.0
 10
3168.829835346535
 20
1955.997700452205
 30
0.0
 10
3169.211075849191
 20
1952.741738920965
 30
0.0
 10
3168.496711242002
 20
1947.274601013887
 30
0.0
 10
3164.46032369603
 20
1945.912768530104
 30
0.0
 10
3161.763769300199
 20
1945.828642092628
 30
0.0
 10
3160.616397386064
 20
1947.38508888274
 30
0.0
 10
3161.121672238821
 20
1948.284293807381
 30
0.0
 10
3161.340431961084
 20
1948.673606314224
 30
0.0
 11
3168.647560867334
 21
1957.554404654068
 31
0.0
 11
3168.994240554834
 21
1952.763785757584
 31
0.0
 11
3167.594338211084
 21
1947.711142935318
 31
0.0
 11
3163.491799148584
 21
1945.931601919693
 31
0.0
 11
3161.837990554834
 21
1946.12224523024
 31
0.0
 11
3160.915627273584
 21
1947.488700308365
 31
0.0
 11
3161.340431961084
 21
1948.673606314224
 31
0.0
  0
SPLINE
  5
363
330
1F
100
AcDbEntity
  8
red
100
AcDbSpline
210
0.0
220
0.0
230
1.0
 70
  1064
 71
     3
 72
     9
 73
     5
 74
     3
 42
0.000000001
 43
0.0000000001
 44
0.0000000001
 40
0.0
 40
0.0
 40
0.0
 40
0.0
 40
11.56681167590255
 40
12.15683578803448
 40
12.15683578803448
 40
12.15683578803448
 40
12.15683578803448
 10
3045.611916336083
 20
1986.286033072037
 30
0.0
 10
3042.096244456834
 20
1984.115943092653
 30
0.0
 10
3038.401237836323
 20
1981.835156626701
 30
0.0
 10
3034.368203888647
 20
1982.326865564421
 30
0.0
 10
3034.172463211084
 20
1982.350730337662
 30
0.0
 11
3045.611916336083
 21
1986.286033072037
 31
0.0
 11
3034.758888992334
 21
1982.285666861099
 31
0.0
 11
3034.172463211084
 21
1982.350730337662
 31
0.0
  0
SPLINE
  5
364
330
1F
100
AcDbEntity
  8
red
100
AcDbSpline
210
0.0
220
0.0
230
1.0
 70
  1064
 71
     3
 72
    10
 73
     6
 74
     4
 42
0.000000001
 43
0.0000000001
 44
0.0000000001
 40
0.0
 40
0.0
 40
0.0
 40
0.0
 40
6.652381224871106
 40
10.7100502663306
 40
12.52709779550901
 40
12.52709779550901
 40
12.52709779550901
 40
12.52709779550901
 10
3032.457619461084
 20
1981.643851675552
 30
0.0
 10
3030.516832393255
 20
1980.565568379687
 30
0.0
 10
3027.392247924917
 20
1978.829578226734
 30
0.0
 10
3024.343295830565
 20
1975.827187642959
 30
0.0
 10
3023.481497549781
 20
1974.061872296562
 30
0.0
 10
3023.214943679834
 20
1973.515860952896
 30
0.0
 11
3032.457619461084
 21
1981.643851675552
 31
0.0
 11
3026.835060867334
 21
1978.088431753677
 31
0.0
 11
3024.068947586084
 21
1975.119712271256
 31
0.0
 11
3023.214943679834
 21
1973.515860952896
 31
0.0
  0
SPLINE
  5
365
330
1F
100
AcDbEntity
  8
red
100
AcDbSpline
210
0.0
220
0.0
230
1.0
 70
  1064
 71
     3
 72
    12
 73
     8
 74
     6
 42
0.000000001
 43
0.0000000001
 44
0.0000000001
 40
0.0
 40
0.0
 40
0.0
 40
0.0
 40
7.087643108949878
 40
9.658799068139167
 40
15.72922114549512
 40
21.99720752616913
 40
23.63138390696793
 40
23.63138390696793
 40
23.63138390696793
 40
23.63138390696793
 10
3031.134377273584
 20
1979.026084341568
 30
0.0
 10
3029.293112320882
 20
1977.538922378768
 30
0.0
 10
3026.783899041381
 20
1975.512268615357
 30
0.0
 10
3022.16714312931
 20
1972.961874771899
 30
0.0
 10
3018.194691654284
 20
1970.283268050478
 30
0.0
 10
3013.660183783007
 20
1967.629157922716
 30
0.0
 10
3013.185638736902
 20
1964.990342915181
 30
0.0
 10
3013.087502273584
 20
1964.444632925552
 30
0.0
 11
3031.134377273584
 21
1979.026084341568
 31
0.0
 11
3025.435158523584
 21
1974.812583365006
 31
0.0
 11
3023.214943679834
 21
1973.515860952896
 31
0.0
 11
3018.073830398584
 21
1970.288016714615
 31
0.0
 11
3013.471291336084
 21
1966.033103384537
 31
0.0
 11
3013.087502273584
 21
1964.444632925552
 31
0.0
  0
SPLINE
  5
366
330
1F
100
AcDbEntity
  8
red
100
AcDbSpline
210
0.0
220
0.0
230
1.0
 70
  1064
 71
     3
 72
    11
 73
     7
 74
     5
 42
0.000000001
 43
0.0000000001
 44
0.0000000001
 40
0.0
 40
0.0
 40
0.0
 40
0.0
 40
10.87764238878314
 40
15.76579766896478
 40
21.1879102647924
 40
23.04180878314207
 40
23.04180878314207
 40
23.04180878314207
 40
23.04180878314207
 10
3027.113381179834
 20
1971.620261587662
 30
0.0
 10
3023.858362105569
 20
1970.063313854533
 30
0.0
 10
3019.140614426496
 20
1967.806710625237
 30
0.0
 10
3012.688474718216
 20
1964.661349640934
 30
0.0
 10
3010.225208609351
 20
1961.30200597061
 30
0.0
 10
3008.872966198009
 20
1959.295850647649
 30
0.0
 10
3008.528420242334
 20
1958.784690298599
 30
0.0
 11
3027.113381179834
 21
1971.620261587662
 31
0.0
 11
3017.308693679834
 21
1966.90950719313
 31
0.0
 11
3013.087502273584
 21
1964.444632925552
 31
0.0
 11
3009.569924148584
 21
1960.318381704849
 31
0.0
 11
3008.528420242334
 21
1958.784690298599
 31
0.0
  0
SPLINE
  5
367
330
1F
100
AcDbEntity
  8
red
100
AcDbSpline
210
0.0
220
0.0
230
1.0
 70
  1064
 71
     3
 72
    12
 73
     8
 74
     6
 42
0.000000001
 43
0.0000000001
 44
0.0000000001
 40
0.0
 40
0.0
 40
0.0
 40
0.0
 40
12.64151164203753
 40
16.71116348968663
 40
21.71326535140931
 40
25.6353179693474
 40
27.64421250930567
 40
27.64421250930567
 40
27.64421250930567
 40
27.64421250930567
 10
3023.603127273584
 20
1965.99690953688
 30
0.0
 10
3019.885994640249
 20
1964.071568518894
 30
0.0
 10
3014.972214318128
 20
1961.526407035358
 30
0.0
 10
3008.018927021302
 20
1958.93822741974
 30
0.0
 10
3005.35887052974
 20
1955.505568931387
 30
0.0
 10
3003.088432958247
 20
1952.206012424741
 30
0.0
 10
3003.670955485933
 20
1950.246272184108
 30
0.0
 10
3003.868263992334
 20
1949.582480825943
 30
0.0
 11
3023.603127273584
 21
1965.99690953688
 31
0.0
 11
3012.201271804834
 21
1960.537467398209
 31
0.0
 11
3008.528420242334
 21
1958.784690298599
 31
0.0
 11
3005.129494461084
 21
1955.114768423599
 31
0.0
 11
3003.484474929834
 21
1951.55437413649
 31
0.0
 11
3003.868263992334
 21
1949.582480825943
 31
0.0
  0
SPLINE
  5
368
330
1F
100
AcDbEntity
  8
red
100
AcDbSpline
210
0.0
220
0.0
230
1.0
 70
  1064
 71
     3
 72
    10
 73
     6
 74
     4
 42
0.000000001
 43
0.0000000001
 44
0.0000000001
 40
0.0
 40
0.0
 40
0.0
 40
0.0
 40
12.9138835567823
 40
16.33823449054642
 40
24.28287140647265
 40
24.28287140647265
 40
24.28287140647265
 40
24.28287140647265
 10
3018.159279617334
 20
1957.498130240006
 30
0.0
 10
3014.390995204672
 20
1955.436306532858
 30
0.0
 10
3009.62348169176
 20
1952.827752796298
 30
0.0
 10
3002.45563477356
 20
1948.964739542694
 30
0.0
 10
2999.963083547351
 20
1946.038821774022
 30
0.0
 10
2998.221291336084
 20
1943.994193472427
 30
0.0
 11
3018.159279617334
 21
1957.498130240006
 31
0.0
 11
3006.819924148584
 21
1951.31853429274
 31
0.0
 11
3003.868263992334
 21
1949.582480825943
 31
0.0
 11
2998.221291336084
 21
1943.994193472427
 31
0.0
  0
SPLINE
  5
369
330
1F
100
AcDbEntity
  8
red
100
AcDbSpline
210
0.0
220
0.0
230
1.0
 70
  1064
 71
     3
 72
    11
 73
     7
 74
     5
 42
0.000000001
 43
0.0000000001
 44
0.0000000001
 40
0.0
 40
0.0
 40
0.0
 40
0.0
 40
7.264097012056095
 40
13.00871344092523
 40
18.14880637191342
 40
22.50359033687128
 40
22.50359033687128
 40
22.50359033687128
 40
22.50359033687128
 10
3016.442971023584
 20
1953.610312857193
 30
0.0
 10
3014.231222709509
 20
1952.65890256825
 30
0.0
 10
3010.270372520766
 20
1950.955094952098
 30
0.0
 10
3004.622101209608
 20
1948.3988458852
 30
0.0
 10
3001.676954279594
 20
1944.010703395796
 30
0.0
 10
3000.699418858714
 20
1941.004671720068
 30
0.0
 10
3000.251076492334
 20
1939.625968374771
 30
0.0
 11
3016.442971023584
 21
1953.610312857193
 31
0.0
 11
3009.780373367334
 21
1950.716025747818
 31
0.0
 11
3004.791603836084
 21
1947.867728628677
 31
0.0
 11
3001.776467117334
 21
1943.704856314224
 31
0.0
 11
3000.251076492334
 21
1939.625968374771
 31
0.0
  0
SPLINE
  5
36A
330
1F
100
AcDbEntity
  8
red
100
AcDbSpline
210
0.0
220
0.0
230
1.0
 70
  1064
 71
     3
 72
    10
 73
     6
 74
     4
 42
0.000000001
 43
0.0000000001
 44
0.0000000001
 40
0.0
 40
0.0
 40
0.0
 40
0.0
 40
5.801484234354772
 40
13.87207372127159
 40
16.49631739417091
 40
16.49631739417091
 40
16.49631739417091
 40
16.49631739417091
 10
3001.636818679834
 20
1936.46370641188
 30
0.0
 10
3002.966162269159
 20
1937.895060039332
 30
0.0
 10
3006.144788897637
 20
1941.317605415505
 30
0.0
 10
3011.370574474448
 20
1943.398017961324
 30
0.0
 10
3014.430830518167
 20
1945.219637955437
 30
0.0
 10
3015.181740554834
 20
1945.666617788834
 30
0.0
 11
3001.636818679834
 21
1936.46370641188
 31
0.0
 11
3005.837502273584
 21
1940.465140738052
 31
0.0
 11
3012.909279617334
 21
1944.354148306412
 31
0.0
 11
3015.181740554834
 21
1945.666617788834
 31
0.0
  0
SPLINE
  5
36B
330
1F
100
AcDbEntity
  8
red
100
AcDbSpline
210
0.0
220
0.0
230
1.0
 70
  1064
 71
     3
 72
    18
 73
    14
 74
    12
 42
0.000000001
 43
0.0000000001
 44
0.0000000001
 40
0.0
 40
0.0
 40
0.0
 40
0.0
 40
2.235270862655859
 40
4.700569677332198
 40
9.101737730188908
 40
20.99096759199764
 40
35.54534949951903
 40
47.65982773774394
 40
61.18531265415737
 40
76.29338713159611
 40
93.43303068134474
 40
105.3907004536561
 40
108.4702910038539
 40
108.4702910038539
 40
108.4702910038539
 40
108.4702910038539
 10
3004.258400711084
 20
1853.241202749771
 30
0.0
 10
3005.306113117183
 20
1852.88838654396
 30
0.0
 10
3007.509356244874
 20
1852.146446412044
 30
0.0
 10
3003.379368496993
 20
1854.932217616959
 30
0.0
 10
3001.958936716758
 20
1860.452433492395
 30
0.0
 10
3005.777349729467
 20
1871.706042132793
 30
0.0
 10
3017.312633257008
 20
1878.00473962129
 30
0.0
 10
3029.008852799596
 20
1884.839743798764
 30
0.0
 10
3043.031642840344
 20
1885.305286506589
 30
0.0
 10
3058.093867136224
 20
1881.58083510752
 30
0.0
 10
3072.728855614022
 20
1888.048624674398
 30
0.0
 10
3079.635823230351
 20
1896.335273482839
 30
0.0
 10
3082.542512983241
 20
1900.417451679178
 30
0.0
 10
3083.137795242334
 20
1901.253470816177
 30
0.0
 11
3004.258400711084
 21
1853.241202749771
 31
0.0
 11
3006.420998367334
 21
1852.675864615006
 31
0.0
 11
3004.592385086084
 21
1854.329306997818
 31
0.0
 11
3002.763283523584
 21
1858.332389273209
 31
0.0
 11
3006.384865554834
 21
1869.656608023209
 31
0.0
 11
3017.977638992334
 21
1878.456473745865
 31
0.0
 11
3028.902443679834
 21
1883.691855825943
 31
0.0
 11
3042.390724929834
 21
1884.694358267349
 31
0.0
 11
3057.439553054834
 21
1883.357688345474
 31
0.0
 11
3073.269142898584
 21
1889.929709829849
 31
0.0
 11
3081.338478836084
 21
1898.754203238052
 31
0.0
 11
3083.137795242334
 21
1901.253470816177
 31
0.0
  0
SPLINE
  5
36C
330
1F
100
AcDbEntity
  8
red
100
AcDbSpline
210
0.0
220
0.0
230
1.0
 70
  1064
 71
     3
 72
    13
 73
     9
 74
     7
 42
0.000000001
 43
0.0000000001
 44
0.0000000001
 40
0.0
 40
0.0
 40
0.0
 40
0.0
 40
6.501724954273005
 40
20.36317933166591
 40
30.14795852089092
 40
38.1078850933396
 40
42.26315284734022
 40
44.483920356795
 40
44.483920356795
 40
44.483920356795
 40
44.483920356795
 10
3085.597756179834
 20
1901.485770620865
 30
0.0
 10
3085.003721431985
 20
1899.401528535936
 30
0.0
 10
3083.143224996846
 20
1892.873753884668
 30
0.0
 10
3078.117792471769
 20
1883.887535188752
 30
0.0
 10
3069.293261397369
 20
1877.28050360086
 30
0.0
 10
3061.163277839692
 20
1877.634204722923
 30
0.0
 10
3057.506941399965
 20
1880.943186882091
 30
0.0
 10
3056.289402158484
 20
1882.682107902455
 30
0.0
 10
3055.865334304834
 20
1883.28777257399
 30
0.0
 11
3085.597756179834
 21
1901.485770620865
 31
0.0
 11
3083.659279617334
 21
1895.279746450943
 31
0.0
 11
3076.524025711084
 21
1883.395804800552
 31
0.0
 11
3068.287209304834
 21
1878.114066519302
 31
0.0
 11
3060.358498367334
 21
1878.818320669693
 31
0.0
 11
3057.187111648584
 21
1881.503196157974
 31
0.0
 11
3055.865334304834
 21
1883.28777257399
 31
0.0
  0
SPLINE
  5
36D
330
1F
100
AcDbEntity
  8
red
100
AcDbSpline
210
0.0
220
0.0
230
1.0
 70
  1064
 71
     3
 72
    14
 73
    10
 74
     8
 42
0.000000001
 43
0.0000000001
 44
0.0000000001
 40
0.0
 40
0.0
 40
0.0
 40
0.0
 40
4.287042907621029
 40
8.529449862185281
 40
13.91566842689493
 40
21.53124106283357
 40
33.62346667376927
 40
43.43707478725746
 40
50.90893261839776
 40
50.90893261839776
 40
50.90893261839776
 40
50.90893261839776
 10
3057.243752273584
 20
1881.435050406021
 30
0.0
 10
3057.409806463653
 20
1879.987159230429
 30
0.0
 10
3057.740185916138
 20
1877.106452073019
 30
0.0
 10
3060.649806891419
 20
1873.342097480123
 30
0.0
 10
3065.148183708314
 20
1869.464784255304
 30
0.0
 10
3074.515457896731
 20
1869.901417706601
 30
0.0
 10
3081.405775750298
 20
1877.98730262935
 30
0.0
 10
3085.318399952476
 20
1887.011471672346
 30
0.0
 10
3085.901748745873
 20
1892.779021741981
 30
0.0
 10
3086.153908523584
 20
1895.272117056412
 30
0.0
 11
3057.243752273584
 21
1881.435050406021
 31
0.0
 11
3058.108986648584
 21
1877.236228384537
 31
0.0
 11
3060.507424148584
 21
1873.736869253677
 31
0.0
 11
3064.817482742334
 21
1870.506583609146
 31
0.0
 11
3072.432717117334
 21
1870.578360952896
 31
0.0
 11
3081.268654617334
 21
1878.833548941177
 31
0.0
 11
3085.076271804834
 21
1887.878379263443
 31
0.0
 11
3086.153908523584
 21
1895.272117056412
 31
0.0
  0
SPLINE
  5
36E
330
1F
100
AcDbEntity
  8
red
100
AcDbSpline
210
0.0
220
0.0
230
1.0
 70
  1064
 71
     3
 72
    14
 73
    10
 74
     8
 42
0.000000001
 43
0.0000000001
 44
0.0000000001
 40
0.0
 40
0.0
 40
0.0
 40
0.0
 40
9.013004961066867
 40
20.08734824782785
 40
31.80523181511879
 40
39.76749005501874
 40
49.461214547433
 40
55.39735483057793
 40
64.76063572096075
 40
64.76063572096075
 40
64.76063572096075
 40
64.76063572096075
 10
3086.153908523584
 20
1895.272117056412
 30
0.0
 10
3086.80348533353
 20
1892.310207852696
 30
0.0
 10
3088.25120178897
 20
1885.708979748364
 30
0.0
 10
3085.224784379369
 20
1874.96594001766
 30
0.0
 10
3078.702218818488
 20
1867.113428321457
 30
0.0
 10
3071.749504566932
 20
1859.689978508491
 30
0.0
 10
3061.856367020337
 20
1860.872458448447
 30
0.0
 10
3058.21717472287
 20
1868.997052537607
 30
0.0
 10
3058.154301278448
 20
1874.097822079281
 30
0.0
 10
3058.115822586084
 20
1877.219504751724
 30
0.0
 11
3086.153908523584
 21
1895.272117056412
 31
0.0
 11
3087.426369461084
 21
1886.349387564224
 31
0.0
 11
3084.656838211083
 21
1875.626944937271
 31
0.0
 11
3077.733986648583
 21
1866.17269078688
 31
0.0
 11
3071.503517898584
 21
1861.214988150162
 31
0.0
 11
3061.926369461084
 21
1862.713828482193
 31
0.0
 11
3059.042092117334
 21
1867.902152456802
 31
0.0
 11
3058.115822586084
 21
1877.219504751724
 31
0.0
  0
SPLINE
  5
36F
330
1F
100
AcDbEntity
  8
red
100
AcDbSpline
210
0.0
220
0.0
230
1.0
 70
  1064
 71
     3
 72
    13
 73
     9
 74
     7
 42
0.000000001
 43
0.0000000001
 44
0.0000000001
 40
0.0
 40
0.0
 40
0.0
 40
0.0
 40
3.037811593078251
 40
8.392434639949517
 40
16.99870676288839
 40
34.40644176093146
 40
50.45378465048461
 40
55.15682971581821
 40
55.15682971581821
 40
55.15682971581821
 40
55.15682971581821
 10
3062.543068679834
 20
1862.228415884537
 30
0.0
 10
3062.827344223933
 20
1861.189615619803
 30
0.0
 10
3063.61270034313
 20
1858.319765710215
 30
0.0
 10
3070.362051495511
 20
1857.452162129735
 30
0.0
 10
3079.92952294919
 20
1861.287541892878
 30
0.0
 10
3089.767028850194
 20
1873.759142535891
 30
0.0
 10
3087.836232035672
 20
1886.991363787551
 30
0.0
 10
3086.464752380502
 20
1893.742077640219
 30
0.0
 10
3086.153908523584
 20
1895.272117056412
 30
0.0
 11
3062.543068679834
 21
1862.228415884537
 31
0.0
 11
3063.729592117334
 21
1859.431907095474
 31
0.0
 11
3068.881935867334
 21
1857.974051870865
 31
0.0
 11
3077.042580398584
 21
1860.707511343521
 31
0.0
 11
3087.508400711084
 21
1874.617789663833
 31
0.0
 11
3087.069924148584
 21
1890.659140982193
 31
0.0
 11
3086.153908523584
 21
1895.272117056412
 31
0.0
  0
SPLINE
  5
370
330
1F
100
AcDbEntity
  8
red
100
AcDbSpline
210
0.0
220
0.0
230
1.0
 70
     8
 71
     3
 72
    10
 73
     6
 74
     0
 42
0.000000001
 43
0.0000000001
 40
0.0
 40
0.0
 40
0.0
 40
0.0
 40
4736805572.996105
 40
13039300669.23486
 40
19615072366.11334
 40
19615072366.11334
 40
19615072366.11334
 40
19615072366.11334
 10
3030.486916336084
 20
1884.113974966568
 30
0.0
 10
3030.503517898584
 20
1881.37273351149
 30
0.0
 10
3030.547463211084
 20
1873.826743521255
 30
0.0
 10
3036.628029617334
 20
1863.281455435318
 30
0.0
 10
3043.924416336084
 20
1858.728598990006
 30
0.0
 10
3047.149025711084
 20
1856.716391958755
 30
0.0
  0
CIRCLE
  5
371
330
1F
100
AcDbEntity
  8
red
100
AcDbCircle
 10
3053.052346023584
 20
1859.201957144302
 30
0.0
 40
6.288786266878831
  0
SPLINE
  5
372
330
1F
100
AcDbEntity
  8
red
100
AcDbSpline
210
0.0
220
0.0
230
1.0
 70
  1064
 71
     3
 72
    17
 73
    13
 74
    11
 42
0.000000001
 43
0.0000000001
 44
0.0000000001
 40
0.0
 40
0.0
 40
0.0
 40
0.0
 40
4.162659407350602
 40
11.27470556676164
 40
13.65598765206212
 40
19.18747481832106
 40
23.89805660216366
 40
26.37878575015596
 40
30.30455220738211
 40
34.65449723923746
 40
37.69700853411766
 40
41.59371470976366
 40
41.59371470976366
 40
41.59371470976366
 40
41.59371470976366
 10
3037.585060867334
 20
1884.913596548599
 30
0.0
 10
3037.510830321829
 20
1883.530463588604
 30
0.0
 10
3037.309774347095
 20
1879.784200597187
 30
0.0
 10
3039.06669549376
 20
1875.128884178233
 30
0.0
 10
3043.3213725551
 20
1872.1100826937
 30
0.0
 10
3048.392437921159
 20
1873.99487830391
 30
0.0
 10
3050.588244521816
 20
1869.839597136097
 30
0.0
 10
3054.840198039855
 20
1868.105056544568
 30
0.0
 10
3055.834248216618
 20
1873.54713271074
 30
0.0
 10
3051.924171420159
 20
1875.856164045983
 30
0.0
 10
3053.615873392209
 20
1879.820555078338
 30
0.0
 10
3053.870996259112
 20
1882.061818225249
 30
0.0
 10
3054.014260086084
 20
1883.320395865005
 30
0.0
 11
3037.585060867334
 21
1884.913596548599
 31
0.0
 11
3037.587502273584
 21
1880.750937857193
 31
0.0
 11
3040.498635086084
 21
1874.261985220474
 31
0.0
 11
3042.514260086084
 21
1872.994010366959
 31
0.0
 11
3048.037697586084
 21
1872.695701040787
 31
0.0
 11
3051.620705398584
 21
1869.637656607193
 31
0.0
 11
3054.008888992334
 21
1868.966391958755
 31
0.0
 11
3054.979592117334
 21
1872.770255484146
 31
0.0
 11
3052.740334304834
 21
1876.499564566177
 31
0.0
 11
3053.337013992333
 21
1879.482993521255
 31
0.0
 11
3054.014260086084
 21
1883.320395865005
 31
0.0
  0
SPLINE
  5
373
330
1F
100
AcDbEntity
  8
red
100
AcDbSpline
210
0.0
220
0.0
230
1.0
 70
  1064
 71
     3
 72
    10
 73
     6
 74
     4
 42
0.000000001
 43
0.0000000001
 44
0.0000000001
 40
0.0
 40
0.0
 40
0.0
 40
0.0
 40
7.8908313677613
 40
15.1558667990423
 40
19.95200777720785
 40
19.95200777720785
 40
19.95200777720785
 40
19.95200777720785
 10
3032.775490554834
 20
1884.548972525162
 30
0.0
 10
3033.021643576615
 20
1881.921745811514
 30
0.0
 10
3033.494428031945
 20
1876.875649111792
 30
0.0
 10
3036.62957295263
 20
1870.676708697684
 30
0.0
 10
3039.829290847425
 20
1868.198847660705
 30
0.0
 10
3041.101662429834
 20
1867.213523306412
 30
0.0
 11
3032.775490554834
 21
1884.548972525162
 31
0.0
 11
3034.031349929834
 21
1876.758719839615
 31
0.0
 11
3037.490822586084
 21
1870.370231070084
 31
0.0
 11
3041.101662429834
 21
1867.213523306412
 31
0.0
  0
SPLINE
  5
374
330
1F
100
AcDbEntity
  8
red
100
AcDbSpline
210
0.0
220
0.0
230
1.0
 70
  1064
 71
     3
 72
    10
 73
     6
 74
     4
 42
0.000000001
 43
0.0000000001
 44
0.0000000001
 40
0.0
 40
0.0
 40
0.0
 40
0.0
 40
9.462138413224188
 40
20.55716497392793
 40
31.90630994303273
 40
31.90630994303273
 40
31.90630994303273
 40
31.90630994303273
 10
3030.551857742334
 20
1880.536979116959
 30
0.0
 10
3027.708966785703
 20
1879.236046322931
 30
0.0
 10
3021.532585100493
 20
1876.409677810982
 30
0.0
 10
3012.650057722284
 20
1869.170173953214
 30
0.0
 10
3012.062394893986
 20
1861.397658119749
 30
0.0
 10
3011.765236648584
 20
1857.467399038833
 30
0.0
 11
3030.551857742334
 21
1880.536979116959
 31
0.0
 11
3022.119240554834
 21
1876.244773306412
 31
0.0
 11
3014.104103836084
 21
1868.57292882399
 31
0.0
 11
3011.765236648584
 21
1857.467399038833
 31
0.0
  0
SPLINE
  5
375
330
1F
100
AcDbEntity
  8
red
100
AcDbSpline
210
0.0
220
0.0
230
1.0
 70
  1064
 71
     3
 72
    10
 73
     6
 74
     4
 42
0.000000001
 43
0.0000000001
 44
0.0000000001
 40
0.0
 40
0.0
 40
0.0
 40
0.0
 40
6.568756252881548
 40
14.31048124166716
 40
21.62327013056768
 40
21.62327013056768
 40
21.62327013056768
 40
21.62327013056768
 10
3018.464943679834
 20
1860.029776968521
 30
0.0
 10
3019.297373147802
 20
1862.0511123052
 30
0.0
 10
3021.110877231035
 20
1866.454728500574
 30
0.0
 10
3024.889540642934
 20
1872.749851374217
 30
0.0
 10
3028.884653550544
 20
1875.849225551435
 30
0.0
 10
3030.825295242334
 20
1877.354758657974
 30
0.0
 11
3018.464943679834
 21
1860.029776968521
 31
0.0
 11
3021.107033523584
 21
1866.043754019302
 31
0.0
 11
3025.325295242334
 21
1872.53533116774
 31
0.0
 11
3030.825295242334
 21
1877.354758657974
 31
0.0
  0
SPLINE
  5
376
330
1F
100
AcDbEntity
  8
red
100
AcDbSpline
210
0.0
220
0.0
230
1.0
 70
  1064
 71
     3
 72
    10
 73
     6
 74
     4
 42
0.000000001
 43
0.0000000001
 44
0.0000000001
 40
0.0
 40
0.0
 40
0.0
 40
0.0
 40
6.876849645547342
 40
18.74801635725308
 40
22.48150915730175
 40
22.48150915730175
 40
22.48150915730175
 40
22.48150915730175
 10
3031.446388992334
 20
1874.384818472427
 30
0.0
 10
3029.954275567599
 20
1872.656557492442
 30
0.0
 10
3025.88640025613
 20
1867.944884736395
 30
0.0
 10
3022.903862113735
 20
1860.416287394258
 30
0.0
 10
3023.634003663806
 20
1855.243719169803
 30
0.0
 10
3023.808693679834
 20
1854.006156363053
 30
0.0
 11
3031.446388992334
 21
1874.384818472427
 31
0.0
 11
3027.182717117334
 21
1868.989249624771
 31
0.0
 11
3023.444924148584
 21
1857.721885122818
 31
0.0
 11
3023.808693679834
 21
1854.006156363053
 31
0.0
  0
SPLINE
  5
377
330
1F
100
AcDbEntity
  8
red
100
AcDbSpline
210
0.0
220
0.0
230
1.0
 70
  1064
 71
     3
 72
    10
 73
     6
 74
     4
 42
0.000000001
 43
0.0000000001
 44
0.0000000001
 40
0.0
 40
0.0
 40
0.0
 40
0.0
 40
9.135047596675395
 40
15.19155856986358
 40
19.89688592791765
 40
19.89688592791765
 40
19.89688592791765
 40
19.89688592791765
 10
3023.808693679834
 20
1854.006156363053
 30
0.0
 10
3024.149351004661
 20
1857.106240081506
 30
0.0
 10
3024.715863181811
 20
1862.26167062327
 30
0.0
 10
3028.9066649136
 20
1867.633647569993
 30
0.0
 10
3031.484047737217
 20
1870.112520640871
 30
0.0
 10
3032.610939773584
 20
1871.196341909927
 30
0.0
 11
3023.808693679834
 21
1854.006156363053
 31
0.0
 11
3025.782814773584
 21
1862.925345816177
 31
0.0
 11
3029.289650711084
 21
1867.863303579849
 31
0.0
 11
3032.610939773584
 21
1871.196341909927
 31
0.0
  0
SPLINE
  5
378
330
1F
100
AcDbEntity
  8
red
100
AcDbSpline
210
0.0
220
0.0
230
1.0
 70
  1064
 71
     3
 72
     9
 73
     5
 74
     3
 42
0.000000001
 43
0.0000000001
 44
0.0000000001
 40
0.0
 40
0.0
 40
0.0
 40
0.0
 40
10.44282101741204
 40
22.6423525237273
 40
22.6423525237273
 40
22.6423525237273
 40
22.6423525237273
 10
3035.184670242334
 20
1866.734244741959
 30
0.0
 10
3032.8330600463
 20
1863.991671761129
 30
0.0
 10
3027.734247477532
 20
1858.045165146639
 30
0.0
 10
3028.214174865067
 20
1850.169274832523
 30
0.0
 10
3028.472756179834
 20
1845.925803579849
 30
0.0
 11
3035.184670242334
 21
1866.734244741959
 31
0.0
 11
3029.316506179834
 21
1858.096122183365
 31
0.0
 11
3028.472756179834
 21
1845.925803579849
 31
0.0
  0
SPLINE
  5
379
330
1F
100
AcDbEntity
  8
red
100
AcDbSpline
210
0.0
220
0.0
230
1.0
 70
  1064
 71
     3
 72
     9
 73
     5
 74
     3
 42
0.000000001
 43
0.0000000001
 44
0.0000000001
 40
0.0
 40
0.0
 40
0.0
 40
0.0
 40
8.451585809326752
 40
18.11780698662928
 40
18.11780698662928
 40
18.11780698662928
 40
18.11780698662928
 10
3038.580666336084
 20
1862.865989126724
 30
0.0
 10
3036.985682124007
 20
1860.47140714314
 30
0.0
 10
3033.566487578384
 20
1855.338101374138
 30
0.0
 10
3033.487535161572
 20
1849.148614749644
 30
0.0
 10
3033.445412429834
 20
1845.846396841568
 30
0.0
 11
3038.580666336084
 21
1862.865989126724
 31
0.0
 11
3034.522560867334
 21
1855.452414907974
 31
0.0
 11
3033.445412429834
 21
1845.846396841568
 31
0.0
  0
SPLINE
  5
37A
330
1F
100
AcDbEntity
  8
red
100
AcDbSpline
210
0.0
220
0.0
230
1.0
 70
  1064
 71
     3
 72
     9
 73
     5
 74
     3
 42
0.000000001
 43
0.0000000001
 44
0.0000000001
 40
0.0
 40
0.0
 40
0.0
 40
0.0
 40
9.136075997842111
 40
16.69121414951101
 40
16.69121414951101
 40
16.69121414951101
 40
16.69121414951101
 10
3042.068947586084
 20
1860.038016714615
 30
0.0
 10
3040.103521833712
 20
1857.607319358244
 30
0.0
 10
3036.512774325092
 20
1853.166540831729
 30
0.0
 10
3035.960857812287
 20
1847.512222116673
 30
0.0
 10
3035.711037429834
 20
1844.952842154068
 30
0.0
 11
3042.068947586084
 21
1860.038016714615
 31
0.0
 11
3037.083107742334
 21
1852.382346548599
 31
0.0
 11
3035.711037429834
 21
1844.952842154068
 31
0.0
  0
SPLINE
  5
37B
330
1F
100
AcDbEntity
  8
red
100
AcDbSpline
210
0.0
220
0.0
230
1.0
 70
  1064
 71
     3
 72
     9
 73
     5
 74
     3
 42
0.000000001
 43
0.0000000001
 44
0.0000000001
 40
0.0
 40
0.0
 40
0.0
 40
0.0
 40
10.5474934238129
 40
15.7950488801181
 40
15.7950488801181
 40
15.7950488801181
 40
15.7950488801181
 10
3043.301857742334
 20
1859.181876577896
 30
0.0
 10
3041.700675648881
 20
1855.880096849386
 30
0.0
 10
3039.302878521561
 20
1850.93562614837
 30
0.0
 10
3040.429511869231
 20
1845.688878030873
 30
0.0
 10
3040.803810867334
 20
1843.945762075943
 30
0.0
 11
3043.301857742334
 21
1859.181876577896
 31
0.0
 11
3040.069924148584
 21
1849.141745962661
 31
0.0
 11
3040.803810867334
 21
1843.945762075943
 31
0.0
  0
SPLINE
  5
37C
330
1F
100
AcDbEntity
  8
red
100
AcDbSpline
210
0.0
220
0.0
230
1.0
 70
  1064
 71
     3
 72
    27
 73
    23
 74
    21
 42
0.000000001
 43
0.0000000001
 44
0.0000000001
 40
0.0
 40
0.0
 40
0.0
 40
0.0
 40
11.98976130409806
 40
23.8054343361709
 40
38.06938480945601
 40
62.37110637366305
 40
85.87605610310717
 40
104.0665476629583
 40
120.876763477302
 40
127.2519199160269
 40
139.054749100834
 40
149.3958684180167
 40
155.4823364353778
 40
161.2934178698501
 40
168.5057465173322
 40
173.4804944080411
 40
175.3251134137427
 40
177.7365672389181
 40
180.4039302161755
 40
183.5087100587515
 40
190.1112366319288
 40
197.896827620447
 40
197.896827620447
 40
197.896827620447
 40
197.896827620447
 10
3059.341408523584
 20
1859.201957144302
 30
0.0
 10
3060.264833309675
 20
1855.319386492557
 30
0.0
 10
3062.098274989801
 20
1847.610619123346
 30
0.0
 10
3068.057665422708
 20
1835.957212333576
 30
0.0
 10
3082.502067543677
 20
1826.640600442896
 30
0.0
 10
3100.95726723879
 20
1817.112924474251
 30
0.0
 10
3122.70477101631
 20
1813.191691454305
 30
0.0
 10
3141.26856539106
 20
1806.12297935977
 30
0.0
 10
3155.124185067712
 20
1807.372707939403
 30
0.0
 10
3167.019225386109
 20
1806.792467433971
 30
0.0
 10
3175.014165235992
 20
1814.948302538004
 30
0.0
 10
3174.389268550466
 20
1824.824090421409
 30
0.0
 10
3169.441323567607
 20
1831.862562556814
 30
0.0
 10
3174.883668783166
 20
1837.194599212392
 30
0.0
 10
3174.622921883593
 20
1843.2515762764
 30
0.0
 10
3175.892970476728
 20
1848.094610383547
 30
0.0
 10
3172.931974722858
 20
1850.844320215439
 30
0.0
 10
3171.252977025404
 20
1847.635053423182
 30
0.0
 10
3168.629746446049
 20
1850.240966234844
 30
0.0
 10
3164.390172504097
 20
1849.382634122484
 30
0.0
 10
3159.291190715454
 20
1846.581100860932
 30
0.0
 10
3154.549044771786
 20
1845.623089560732
 30
0.0
 10
3151.983010086084
 20
1845.104697622818
 30
0.0
 11
3059.341408523584
 21
1859.201957144302
 31
0.0
 11
3062.591896804834
 21
1847.661216177505
 31
0.0
 11
3068.371193679834
 21
1837.355399527115
 31
0.0
 11
3079.680275711084
 21
1828.662589468521
 31
0.0
 11
3101.591896804834
 21
1818.152854361099
 31
0.0
 11
3124.294045242334
 21
1812.062278189224
 31
0.0
 11
3141.872658523584
 21
1807.383994497818
 31
0.0
 11
3158.680763992334
 21
1807.117637075943
 31
0.0
 11
3165.040627273584
 21
1807.558951773209
 31
0.0
 11
3173.521096023584
 21
1815.767997183365
 31
0.0
 11
3172.990822586084
 21
1826.095511831803
 31
0.0
 11
3170.959572586084
 21
1831.833030142349
 31
0.0
 11
3173.708596023584
 21
1836.952750601334
 31
0.0
 11
3175.038674148584
 21
1844.041373648209
 31
0.0
 11
3174.683693679833
 21
1849.003440298599
 31
0.0
 11
3173.176369461084
 21
1850.06673375563
 31
0.0
 11
3171.225685867334
 21
1848.649009146256
 31
0.0
 11
3168.742775711084
 21
1849.623679556412
 31
0.0
 11
3165.639260086084
 21
1849.535087027115
 31
0.0
 11
3159.520607742334
 21
1847.054068960709
 31
0.0
 11
3151.983010086084
 21
1845.104697622818
 31
0.0
  0
SPLINE
  5
37D
330
1F
100
AcDbEntity
  8
red
100
AcDbSpline
210
0.0
220
0.0
230
1.0
 70
  1064
 71
     3
 72
    15
 73
    11
 74
     9
 42
0.000000001
 43
0.0000000001
 44
0.0000000001
 40
0.0
 40
0.0
 40
0.0
 40
0.0
 40
2.310610761629864
 40
7.875995201375168
 40
18.11651054774736
 40
21.65960907971992
 40
26.42634131393481
 40
30.07162688058876
 40
35.39478056660394
 40
39.80585637194018
 40
39.80585637194018
 40
39.80585637194018
 40
39.80585637194018
 10
3151.983010086084
 20
1845.104697622818
 30
0.0
 10
3151.934044104101
 20
1845.952955647934
 30
0.0
 10
3151.767137654288
 20
1848.844345338608
 30
0.0
 10
3160.046139269723
 20
1849.055079072117
 30
0.0
 10
3162.90140243809
 20
1854.556643481181
 30
0.0
 10
3168.390211370011
 20
1859.363809089372
 30
0.0
 10
3171.968325550326
 20
1855.207728909692
 30
0.0
 10
3177.359582023171
 20
1859.61557044107
 30
0.0
 10
3176.409938401197
 20
1852.156662181754
 30
0.0
 10
3175.502243219486
 20
1849.441724727187
 30
0.0
 10
3175.090920242334
 20
1848.211448111099
 30
0.0
 11
3151.983010086084
 21
1845.104697622818
 31
0.0
 11
3152.160256179834
 21
1847.408500113052
 31
0.0
 11
3157.303322586084
 21
1849.535087027115
 31
0.0
 11
3165.018166336084
 21
1856.269278921646
 31
0.0
 11
3168.033303054834
 21
1858.13005773024
 31
0.0
 11
3172.555763992334
 21
1856.62371007399
 31
0.0
 11
3176.014260086084
 21
1857.775626577896
 31
0.0
 11
3176.280373367334
 21
1852.459128775162
 31
0.0
 11
3175.090920242334
 21
1848.211448111099
 31
0.0
  0
SPLINE
  5
37E
330
1F
100
AcDbEntity
  8
red
100
AcDbSpline
210
0.0
220
0.0
230
1.0
 70
  1064
 71
     3
 72
    10
 73
     6
 74
     4
 42
0.000000001
 43
0.0000000001
 44
0.0000000001
 40
0.0
 40
0.0
 40
0.0
 40
0.0
 40
6.747828456584377
 40
12.63234177828024
 40
14.23912801230445
 40
14.23912801230445
 40
14.23912801230445
 40
14.23912801230445
 10
3175.847267898584
 20
1857.784903921646
 30
0.0
 10
3175.212671608826
 20
1859.914041461655
 30
0.0
 10
3174.024669086971
 20
1863.899915327803
 30
0.0
 10
3170.789372559374
 20
1868.097808232116
 30
0.0
 10
3171.33397367403
 20
1870.585143187801
 30
0.0
 10
3171.450783523584
 20
1871.118644156021
 30
0.0
 11
3175.847267898584
 21
1857.784903921646
 31
0.0
 11
3173.463478836084
 21
1864.097648062271
 31
0.0
 11
3171.203713211084
 21
1869.530967154068
 31
0.0
 11
3171.450783523584
 21
1871.118644156021
 31
0.0
  0
SPLINE
  5
37F
330
1F
100
AcDbEntity
  8
red
100
AcDbSpline
210
0.0
220
0.0
230
1.0
 70
  1064
 71
     3
 72
    20
 73
    16
 74
    14
 42
0.000000001
 43
0.0000000001
 44
0.0000000001
 40
0.0
 40
0.0
 40
0.0
 40
0.0
 40
6.491194707942878
 40
11.25759770207248
 40
17.9179127176566
 40
24.00216251517118
 40
29.7056561879485
 40
36.35502525105667
 40
47.49928238104263
 40
53.42035920501691
 40
62.18992539388914
 40
72.1892151584633
 40
75.17114399633079
 40
95.27530378155253
 40
98.513287278355
 40
98.513287278355
 40
98.513287278355
 40
98.513287278355
 10
3169.508888992334
 20
1860.675376333755
 30
0.0
 10
3168.90240918012
 20
1862.887739177316
 30
0.0
 10
3167.850598835873
 20
1866.72461235466
 30
0.0
 10
3171.677169638956
 20
1871.966884366454
 30
0.0
 10
3176.985263285279
 20
1874.499513471806
 30
0.0
 10
3179.569592358572
 20
1881.245890083928
 30
0.0
 10
3175.505817380928
 20
1886.506683535712
 30
0.0
 10
3170.097223417326
 20
1891.994257837763
 30
0.0
 10
3164.993416245242
 20
1897.849240365081
 30
0.0
 10
3160.630852348079
 20
1906.146666181082
 30
0.0
 10
3166.040084018554
 20
1913.632347140794
 30
0.0
 10
3170.659918122085
 20
1919.577161858845
 30
0.0
 10
3169.962852490812
 20
1930.83539989975
 30
0.0
 10
3165.186081715658
 20
1938.588087679287
 30
0.0
 10
3161.794328757348
 20
1945.576874999274
 30
0.0
 10
3161.323830398584
 20
1946.546348013443
 30
0.0
 11
3169.508888992334
 21
1860.675376333755
 31
0.0
 11
3168.838478836084
 21
1867.131858267349
 31
0.0
 11
3171.450783523584
 21
1871.118644156021
 31
0.0
 11
3176.592385086084
 21
1875.352286734146
 31
0.0
 11
3178.490822586084
 21
1881.132773794693
 31
0.0
 11
3175.688576492334
 21
1886.100394644302
 31
0.0
 11
3171.169045242334
 21
1890.977683462662
 31
0.0
 11
3164.206642898584
 21
1899.67937413649
 31
0.0
 11
3162.037697586084
 21
1905.188895620865
 31
0.0
 11
3165.743263992334
 21
1913.137107290786
 31
0.0
 11
3170.352150711084
 21
1922.010886587662
 31
0.0
 11
3170.261818679834
 21
1924.991446890396
 31
0.0
 11
3162.751564773584
 21
1943.640128531021
 31
0.0
 11
3161.323830398584
 21
1946.546348013443
 31
0.0
  0
SPLINE
  5
380
330
1F
100
AcDbEntity
  8
red
100
AcDbSpline
210
0.0
220
0.0
230
1.0
 70
  1064
 71
     3
 72
    11
 73
     7
 74
     5
 42
0.000000001
 43
0.0000000001
 44
0.0000000001
 40
0.0
 40
0.0
 40
0.0
 40
0.0
 40
10.37149104724115
 40
20.10126613816678
 40
24.50743662569869
 40
29.05506676817906
 40
29.05506676817906
 40
29.05506676817906
 40
29.05506676817906
 10
3169.175881179834
 20
1918.247519888443
 30
0.0
 10
3170.29622009945
 20
1914.910306389909
 30
0.0
 10
3172.467579134095
 20
1908.442363025896
 30
0.0
 10
3169.81654970568
 20
1899.993615158017
 30
0.0
 10
3172.718979137593
 20
1894.199920946507
 30
0.0
 10
3172.534642413664
 20
1891.174284201119
 30
0.0
 10
3172.441017898584
 20
1889.637565054458
 30
0.0
 11
3169.175881179834
 21
1918.247519888443
 31
0.0
 11
3171.379982742334
 21
1908.112937368912
 31
0.0
 11
3171.005471023584
 21
1898.390372671646
 31
0.0
 11
3172.315529617334
 21
1894.183463491959
 31
0.0
 11
3172.441017898584
 21
1889.637565054458
 31
0.0
  0
SPLINE
  5
381
330
1F
100
AcDbEntity
  8
red
100
AcDbSpline
210
0.0
220
0.0
230
1.0
 70
  1064
 71
     3
 72
    10
 73
     6
 74
     4
 42
0.000000001
 43
0.0000000001
 44
0.0000000001
 40
0.0
 40
0.0
 40
0.0
 40
0.0
 40
6.316541587217779
 40
10.74389807441439
 40
14.22682928497011
 40
14.22682928497011
 40
14.22682928497011
 40
14.22682928497011
 10
3163.919045242334
 20
1900.146201529068
 30
0.0
 10
3165.531434237314
 20
1898.787152435253
 30
0.0
 10
3168.273970287964
 20
1896.475525931976
 30
0.0
 10
3173.212156777541
 20
1895.176273518996
 30
0.0
 10
3175.648202438245
 20
1896.345350137895
 30
0.0
 10
3176.720803054834
 20
1896.860099234146
 30
0.0
 11
3163.919045242334
 21
1900.146201529068
 31
0.0
 11
3169.097267898584
 21
1896.528922476334
 31
0.0
 11
3173.442971023584
 21
1895.682547964615
 31
0.0
 11
3176.720803054834
 21
1896.860099234146
 31
0.0
  0
SPLINE
  5
382
330
1F
100
AcDbEntity
  8
red
100
AcDbSpline
210
0.0
220
0.0
230
1.0
 70
  1064
 71
     3
 72
     9
 73
     5
 74
     3
 42
0.000000001
 43
0.0000000001
 44
0.0000000001
 40
0.0
 40
0.0
 40
0.0
 40
0.0
 40
3.823955570181587
 40
13.19731664494949
 40
13.19731664494949
 40
13.19731664494949
 40
13.19731664494949
 10
3176.720803054834
 20
1896.860099234146
 30
0.0
 10
3175.604765946608
 20
1896.094712083061
 30
0.0
 10
3171.753074985651
 20
1893.453191698353
 30
0.0
 10
3167.668353191569
 20
1896.584886799005
 30
0.0
 10
3164.767189773584
 20
1898.809165396255
 30
0.0
 11
3176.720803054834
 21
1896.860099234146
 31
0.0
 11
3173.353127273584
 21
1895.048636831802
 31
0.0
 11
3164.767189773584
 21
1898.809165396255
 31
0.0
  0
SPLINE
  5
383
330
1F
100
AcDbEntity
  8
red
100
AcDbSpline
210
0.0
220
0.0
230
1.0
 70
  1064
 71
     3
 72
    11
 73
     7
 74
     5
 42
0.000000001
 43
0.0000000001
 44
0.0000000001
 40
0.0
 40
0.0
 40
0.0
 40
0.0
 40
11.51325359345043
 40
21.21243523265862
 40
25.94089604017268
 40
31.51370587818388
 40
31.51370587818388
 40
31.51370587818388
 40
31.51370587818388
 10
3114.095314773584
 20
1904.580985464615
 30
0.0
 10
3117.893799612872
 20
1903.945388791641
 30
0.0
 10
3124.892265596585
 20
1902.774342470972
 30
0.0
 10
3133.834079011439
 20
1906.081045063246
 30
0.0
 10
3139.822031244534
 20
1902.085745287229
 30
0.0
 10
3143.317253016836
 20
1902.89800576013
 30
0.0
 10
3145.208107742334
 20
1903.337424673599
 30
0.0
 11
3114.095314773584
 21
1904.580985464615
 31
0.0
 11
3125.583107742334
 21
1903.815726675552
 31
0.0
 11
3135.252053054834
 21
1904.580985464615
 31
0.0
 11
3139.655861648584
 21
1902.859122671646
 31
0.0
 11
3145.208107742334
 21
1903.337424673599
 31
0.0
  0
SPLINE
  5
384
330
1F
100
AcDbEntity
  8
red
100
AcDbSpline
210
0.0
220
0.0
230
1.0
 70
  1064
 71
     3
 72
    11
 73
     7
 74
     5
 42
0.000000001
 43
0.0000000001
 44
0.0000000001
 40
0.0
 40
0.0
 40
0.0
 40
0.0
 40
6.381915385445663
 40
14.07841025999437
 40
21.19117782522968
 40
27.60425797656556
 40
27.60425797656556
 40
27.60425797656556
 40
27.60425797656556
 10
3118.110939773584
 20
1903.959556021256
 30
0.0
 10
3119.948816997256
 20
1902.836660974488
 30
0.0
 10
3124.003146771257
 20
1900.359571230653
 30
0.0
 10
3130.102543936439
 20
1897.759667254005
 30
0.0
 10
3138.550551083913
 20
1895.453652169542
 30
0.0
 10
3140.209586591776
 20
1900.371509666108
 30
0.0
 10
3140.996193679834
 20
1902.703238882583
 30
0.0
 11
3118.110939773584
 21
1903.959556021256
 31
0.0
 11
3123.624123367334
 21
1900.74495641188
 31
0.0
 11
3130.711525711084
 21
1897.744162954849
 31
0.0
 11
3137.798928054834
 21
1897.144004263443
 31
0.0
 11
3140.996193679834
 21
1902.703238882583
 31
0.0
  0
SPLINE
  5
385
330
1F
100
AcDbEntity
  8
red
100
AcDbSpline
210
0.0
220
0.0
230
1.0
 70
  1064
 71
     3
 72
    16
 73
    12
 74
    10
 42
0.000000001
 43
0.0000000001
 44
0.0000000001
 40
0.0
 40
0.0
 40
0.0
 40
0.0
 40
7.053067526162725
 40
12.54110801130364
 40
18.29886538814669
 40
21.41420314944315
 40
30.20190511479878
 40
36.35870057781994
 40
39.58758428512327
 40
44.56256935243007
 40
50.7498129146888
 40
50.7498129146888
 40
50.7498129146888
 40
50.7498129146888
 10
3160.106545242334
 20
1866.908744253677
 30
0.0
 10
3157.64206006769
 20
1867.039908696975
 30
0.0
 10
3153.259941981792
 20
1867.273133098206
 30
0.0
 10
3149.34103909721
 20
1873.417969181011
 30
0.0
 10
3151.814759145092
 20
1877.93818421563
 30
0.0
 10
3153.124439017068
 20
1883.819073570083
 30
0.0
 10
3159.783030174262
 20
1886.382863968541
 30
0.0
 10
3166.794290021074
 20
1884.996292086773
 30
0.0
 10
3167.832826516626
 20
1879.764685959839
 30
0.0
 10
3173.635414208247
 20
1878.300836804669
 30
0.0
 10
3176.59716540448
 20
1880.788771680566
 30
0.0
 10
3178.238869461084
 20
1882.167838491958
 30
0.0
 11
3160.106545242334
 21
1866.908744253677
 31
0.0
 11
3153.249611648584
 21
1868.560477652115
 31
0.0
 11
3150.433693679834
 21
1873.271018423599
 31
0.0
 11
3151.903420242334
 21
1878.838035025162
 31
0.0
 11
3152.943947586084
 21
1881.774466909927
 31
0.0
 11
3160.841408523584
 21
1885.628531851333
 31
0.0
 11
3166.657814773584
 21
1883.609733023209
 31
0.0
 11
3168.127053054833
 21
1880.734488882584
 31
0.0
 11
3172.840920242334
 21
1879.143912710708
 31
0.0
 11
3178.238869461084
 21
1882.167838491958
 31
0.0
  0
SPLINE
  5
386
330
1F
100
AcDbEntity
  8
red
100
AcDbSpline
210
0.0
220
0.0
230
1.0
 70
  1064
 71
     3
 72
    17
 73
    13
 74
    11
 42
0.000000001
 43
0.0000000001
 44
0.0000000001
 40
0.0
 40
0.0
 40
0.0
 40
0.0
 40
2.506006101451397
 40
4.627841501485211
 40
6.252004322282804
 40
10.28953716102843
 40
15.75388111238703
 40
17.86124743932432
 40
20.51934026392541
 40
23.8835463871572
 40
25.84319169624252
 40
27.19192342206602
 40
27.19192342206602
 40
27.19192342206602
 40
27.19192342206602
 10
3164.326760086084
 20
1870.953849234146
 30
0.0
 10
3163.709943779435
 20
1870.42261983595
 30
0.0
 10
3162.570869097594
 20
1869.441598499108
 30
0.0
 10
3159.897605705869
 20
1869.134922421693
 30
0.0
 10
3159.319713795433
 20
1872.269604616128
 30
0.0
 10
3162.720010222161
 20
1874.865116434929
 30
0.0
 10
3165.255831851399
 20
1876.823413456555
 30
0.0
 10
3170.305494818556
 20
1876.908445154895
 30
0.0
 10
3166.78882178414
 20
1873.8063034951
 30
0.0
 10
3164.346422113632
 20
1875.078464652972
 30
0.0
 10
3162.230997752786
 20
1873.301503098901
 30
0.0
 10
3162.419044187025
 20
1872.164047984939
 30
0.0
 10
3162.495705398584
 20
1871.700339712662
 30
0.0
 11
3164.326760086084
 21
1870.953849234146
 31
0.0
 11
3162.230080398584
 21
1869.581260122818
 31
0.0
 11
3160.109474929834
 21
1869.65349523024
 31
0.0
 11
3159.675881179834
 21
1871.218711294693
 31
0.0
 11
3162.134377273584
 21
1874.421439566177
 31
0.0
 11
3167.074318679834
 21
1876.757254995865
 31
0.0
 11
3169.170510086084
 21
1876.540519156021
 31
0.0
 11
3167.242775711084
 21
1874.710410513443
 31
0.0
 11
3163.893166336084
 21
1874.397361197036
 31
0.0
 11
3162.471291336084
 21
1873.048850454849
 31
0.0
 11
3162.495705398584
 21
1871.700339712662
 31
0.0
  0
SPLINE
  5
387
330
1F
100
AcDbEntity
  8
red
100
AcDbSpline
210
0.0
220
0.0
230
1.0
 70
  1064
 71
     3
 72
    11
 73
     7
 74
     5
 42
0.000000001
 43
0.0000000001
 44
0.0000000001
 40
0.0
 40
0.0
 40
0.0
 40
0.0
 40
3.71365467090921
 40
8.635150663115631
 40
15.63814905419456
 40
21.56688753963872
 40
21.56688753963872
 40
21.56688753963872
 40
21.56688753963872
 10
3152.642189773584
 20
1869.05583898024
 30
0.0
 10
3152.541443905033
 20
1870.32973582492
 30
0.0
 10
3152.307185248611
 20
1873.291855935133
 30
0.0
 10
3156.075833822797
 20
1877.577449778838
 30
0.0
 10
3161.593802881896
 20
1879.867874736756
 30
0.0
 10
3165.765670574756
 20
1880.96478129996
 30
0.0
 10
3167.678322586084
 20
1881.467673697037
 30
0.0
 11
3152.642189773584
 21
1869.05583898024
 31
0.0
 11
3152.768166336084
 21
1872.767356314224
 31
0.0
 11
3155.712502273584
 21
1876.710959829849
 31
0.0
 11
3161.977150711084
 21
1879.840842642349
 31
0.0
 11
3167.678322586084
 21
1881.467673697037
 31
0.0
  0
SPLINE
  5
388
330
1F
100
AcDbEntity
  8
red
100
AcDbSpline
210
0.0
220
0.0
230
1.0
 70
  1064
 71
     3
 72
     9
 73
     5
 74
     3
 42
0.000000001
 43
0.0000000001
 44
0.0000000001
 40
0.0
 40
0.0
 40
0.0
 40
0.0
 40
2.835423969670743
 40
9.623161191267843
 40
9.623161191267843
 40
9.623161191267843
 40
9.623161191267843
 10
3136.183693679834
 20
1904.247214712662
 30
0.0
 10
3136.136869578818
 20
1903.245891160594
 30
0.0
 10
3135.977953001782
 20
1899.847493584348
 30
0.0
 10
3132.403318997374
 20
1898.780764493369
 30
0.0
 10
3129.881935867334
 20
1898.028342642349
 30
0.0
 11
3136.183693679834
 21
1904.247214712662
 31
0.0
 11
3135.746681961084
 21
1901.445670523209
 31
0.0
 11
3129.881935867334
 21
1898.028342642349
 31
0.0
  0
ELLIPSE
  5
389
330
1F
100
AcDbEntity
  8
red
100
AcDbEllipse
 10
3054.865822586084
 20
1822.514518179459
 30
0.0
 11
-1.81339934646838
 21
30.39865243041771
 31
0.0
210
0.0
220
0.0
230
1.0
 40
0.4733723466130577
 41
0.0
 42
6.283185307179586
  0
SPLINE
  5
38A
330
1F
100
AcDbEntity
  8
red
100
AcDbSpline
210
0.0
220
0.0
230
1.0
 70
  1064
 71
     3
 72
    12
 73
     8
 74
     6
 42
0.000000001
 43
0.0000000001
 44
0.0000000001
 40
0.0
 40
0.0
 40
0.0
 40
0.0
 40
12.9880314122099
 40
28.89090788780093
 40
55.5734203664513
 40
89.40590424062165
 40
114.2708083889396
 40
114.2708083889396
 40
114.2708083889396
 40
114.2708083889396
 10
3141.068459304834
 20
1807.497031607193
 30
0.0
 10
3137.091959650535
 20
1805.531328456282
 30
0.0
 10
3128.246532535213
 20
1801.158768299527
 30
0.0
 10
3119.929986294096
 20
1783.385509439003
 30
0.0
 10
3117.609737795162
 20
1757.985233637995
 30
0.0
 10
3103.096460912874
 20
1732.603622784969
 30
0.0
 10
3099.706937864873
 20
1713.252071515506
 30
0.0
 10
3098.271096023584
 20
1705.05452672438
 30
0.0
 11
3141.068459304834
 21
1807.497031607193
 31
0.0
 11
3130.052834304834
 21
1800.616263784927
 31
0.0
 11
3122.251564773584
 21
1786.758353628678
 31
0.0
 11
3116.184181961084
 21
1760.774833120865
 31
0.0
 11
3103.760842117333
 21
1729.30583898024
 31
0.0
 11
3098.271096023584
 21
1705.05452672438
 31
0.0
  0
SPLINE
  5
38B
330
1F
100
AcDbEntity
  8
red
100
AcDbSpline
210
0.0
220
0.0
230
1.0
 70
  1064
 71
     3
 72
    11
 73
     7
 74
     5
 42
0.000000001
 43
0.0000000001
 44
0.0000000001
 40
0.0
 40
0.0
 40
0.0
 40
0.0
 40
23.17580716467456
 40
52.3694803829089
 40
92.55332648363914
 40
115.9146608829079
 40
115.9146608829079
 40
115.9146608829079
 40
115.9146608829079
 10
3040.552834304834
 20
1818.058494009537
 30
0.0
 10
3039.720263675261
 20
1810.290192878672
 30
0.0
 10
3037.838935834421
 20
1792.73646149013
 30
0.0
 10
3020.256748387374
 20
1766.140993270382
 30
0.0
 10
2996.669979329846
 20
1745.930861136891
 30
0.0
 10
2978.80797958651
 20
1734.52481095911
 30
0.0
 10
2972.241310867334
 20
1730.331565298599
 30
0.0
 11
3040.552834304834
 21
1818.058494009537
 31
0.0
 11
3036.475197586084
 21
1795.244223990005
 31
0.0
 11
3021.553810867334
 21
1770.151938833755
 31
0.0
 11
2991.711525711084
 21
1743.241355337662
 31
0.0
 11
2972.241310867334
 21
1730.331565298599
 31
0.0
  0
SPLINE
  5
38C
330
1F
100
AcDbEntity
  8
red
100
AcDbSpline
210
0.0
220
0.0
230
1.0
 70
  1064
 71
     3
 72
    16
 73
    12
 74
    10
 42
0.000000001
 43
0.0000000001
 44
0.0000000001
 40
0.0
 40
0.0
 40
0.0
 40
0.0
 40
10.95895311875136
 40
22.46447237909698
 40
31.52218953049567
 40
52.25981710452296
 40
76.07086538906973
 40
112.7303852286882
 40
144.6595235388292
 40
164.0879760128359
 40
190.7880879517433
 40
190.7880879517433
 40
190.7880879517433
 40
190.7880879517433
 10
2994.437111648584
 20
1732.999930777115
 30
0.0
 10
2990.882245271457
 20
1732.925432320898
 30
0.0
 10
2983.595217334116
 20
1732.772719877124
 30
0.0
 10
2971.645798937332
 20
1732.666126113532
 30
0.0
 10
2965.763181778967
 20
1717.601930942008
 30
0.0
 10
2979.508154608109
 20
1702.123061392908
 30
0.0
 10
3001.983329951658
 20
1688.051324737467
 30
0.0
 10
3033.291386940486
 20
1682.592159182684
 30
0.0
 10
3061.409975213392
 20
1676.98517367826
 30
0.0
 10
3087.694291154811
 20
1669.633661181902
 30
0.0
 10
3095.451179673812
 20
1655.459900220346
 30
0.0
 10
3099.941017898584
 20
1647.255851187271
 30
0.0
 11
2994.437111648584
 21
1732.999930777115
 31
0.0
 11
2983.480080398584
 21
1732.794700064224
 31
0.0
 11
2972.241310867334
 21
1730.331565298599
 31
0.0
 11
2968.525002273583
 21
1722.071341909927
 31
0.0
 11
2978.916603836084
 21
1704.125205435318
 31
0.0
 11
2999.009377273584
 21
1691.348411001724
 31
0.0
 11
3034.514748367334
 21
1682.222129263443
 31
0.0
 11
3065.746193679834
 21
1675.583854116959
 31
0.0
 11
3083.866310867334
 21
1668.574851431412
 31
0.0
 11
3099.941017898584
 21
1647.255851187271
 31
0.0
  0
ARC
  5
38D
330
1F
100
AcDbEntity
  8
red
100
AcDbCircle
 10
-3099.941017898584
 20
1647.255851187271
 30
0.0
 40
5.73460792775867
210
0.0
220
0.0
230
-1.0
100
AcDbArc
 50
147.9931338955391
 51
147.9931338955391
  0
SPLINE
  5
38E
330
1F
100
AcDbEntity
  8
red
100
AcDbSpline
210
0.0
220
0.0
230
1.0
 70
  1064
 71
     3
 72
    10
 73
     6
 74
     4
 42
0.000000001
 43
0.0000000001
 44
0.0000000001
 40
0.0
 40
0.0
 40
0.0
 40
0.0
 40
20.26282251255506
 40
74.41822573622059
 40
122.8638465349636
 40
122.8638465349636
 40
122.8638465349636
 40
122.8638465349636
 10
2994.437111648584
 20
1732.999930777115
 30
0.0
 10
3001.140048174677
 20
1731.841619826231
 30
0.0
 10
3025.757578293462
 20
1727.587550791069
 30
0.0
 10
3059.139056581979
 20
1700.302921915376
 30
0.0
 10
3080.760652957662
 20
1674.101335575256
 30
0.0
 10
3090.969826492333
 20
1661.729606070084
 30
0.0
 11
2994.437111648584
 21
1732.999930777115
 31
0.0
 11
3014.219826492334
 21
1728.615165152115
 31
0.0
 11
3058.947853836084
 21
1698.083030142349
 31
0.0
 11
3090.969826492333
 21
1661.729606070084
 31
0.0
  0
SPLINE
  5
38F
330
1F
100
AcDbEntity
  8
red
100
AcDbSpline
210
0.0
220
0.0
230
1.0
 70
  1064
 71
     3
 72
     9
 73
     5
 74
     3
 42
0.000000001
 43
0.0000000001
 44
0.0000000001
 40
0.0
 40
0.0
 40
0.0
 40
0.0
 40
30.50508716417535
 40
74.27406127911544
 40
74.27406127911544
 40
74.27406127911544
 40
74.27406127911544
 10
3099.941017898584
 20
1647.255851187271
 30
0.0
 10
3105.566362367648
 20
1655.744709080385
 30
0.0
 10
3119.263001802336
 20
1676.413456819065
 30
0.0
 10
3129.390169640441
 20
1699.068008540327
 30
0.0
 10
3135.358010086084
 20
1712.418113150162
 30
0.0
 11
3099.941017898584
 21
1647.255851187271
 31
0.0
 11
3116.214943679834
 21
1673.057395376724
 31
0.0
 11
3135.358010086084
 21
1712.418113150162
 31
0.0
  0
SPLINE
  5
390
330
1F
100
AcDbEntity
  8
red
100
AcDbSpline
210
0.0
220
0.0
230
1.0
 70
  1064
 71
     3
 72
     9
 73
     5
 74
     3
 42
0.000000001
 43
0.0000000001
 44
0.0000000001
 40
0.0
 40
0.0
 40
0.0
 40
0.0
 40
26.30960921931074
 40
39.16452621880809
 40
39.16452621880809
 40
39.16452621880809
 40
39.16452621880809
 10
3135.358010086084
 20
1712.418113150162
 30
0.0
 10
3129.882854340506
 20
1719.327389820237
 30
0.0
 10
3121.732528770778
 20
1729.612550084022
 30
0.0
 10
3111.49324858819
 20
1737.757817626472
 30
0.0
 10
3108.132424148584
 20
1740.43132726149
 30
0.0
 11
3135.358010086084
 21
1712.418113150162
 31
0.0
 11
3117.989846023584
 21
1732.180259146256
 31
0.0
 11
3108.132424148584
 21
1740.43132726149
 31
0.0
  0
SPLINE
  5
391
330
1F
100
AcDbEntity
  8
red
100
AcDbSpline
210
0.0
220
0.0
230
1.0
 70
  1064
 71
     3
 72
     9
 73
     5
 74
     3
 42
0.000000001
 43
0.0000000001
 44
0.0000000001
 40
0.0
 40
0.0
 40
0.0
 40
0.0
 40
5.044193258035294
 40
8.554460205017782
 40
8.554460205017782
 40
8.554460205017782
 40
8.554460205017782
 10
2998.833596023584
 20
1887.27767125563
 30
0.0
 10
3000.083861120398
 20
1888.424708080443
 30
0.0
 10
3002.204188885276
 20
1890.369970755682
 30
0.0
 10
3004.829195562115
 20
1891.526143643219
 30
0.0
 10
3005.906349929834
 20
1892.000571646255
 30
0.0
 11
2998.833596023584
 21
1887.27767125563
 31
0.0
 11
3002.759865554834
 21
1890.444419302506
 31
0.0
 11
3005.906349929834
 21
1892.000571646255
 31
0.0
  0
SPLINE
  5
392
330
1F
100
AcDbEntity
  8
red
100
AcDbSpline
210
0.0
220
0.0
230
1.0
 70
  1064
 71
     3
 72
     9
 73
     5
 74
     3
 42
0.000000001
 43
0.0000000001
 44
0.0000000001
 40
0.0
 40
0.0
 40
0.0
 40
0.0
 40
11.28180126052082
 40
20.68681316403173
 40
20.68681316403173
 40
20.68681316403173
 40
20.68681316403173
 10
3006.002053054834
 20
1908.90706578688
 30
0.0
 10
3007.947468220915
 20
1912.134418875929
 30
0.0
 10
3011.514668097768
 20
1918.052237212363
 30
0.0
 10
3015.995273085094
 20
1923.30877723199
 30
0.0
 10
3018.032326492334
 20
1925.698600210709
 30
0.0
 11
3006.002053054834
 21
1908.90706578688
 31
0.0
 11
3012.109963211084
 21
1918.392447866959
 31
0.0
 11
3018.032326492334
 21
1925.698600210709
 31
0.0
  0
SPLINE
  5
393
330
1F
100
AcDbEntity
  8
red
100
AcDbSpline
210
0.0
220
0.0
230
1.0
 70
  1064
 71
     3
 72
     9
 73
     5
 74
     3
 42
0.000000001
 43
0.0000000001
 44
0.0000000001
 40
0.0
 40
0.0
 40
0.0
 40
0.0
 40
9.651631693933971
 40
18.3964710878809
 40
18.3964710878809
 40
18.3964710878809
 40
18.3964710878809
 10
3008.358498367334
 20
1909.07146398024
 30
0.0
 10
3009.972523240981
 20
1911.860869562264
 30
0.0
 10
3013.048931755598
 20
1917.177609857515
 30
0.0
 10
3016.895992775576
 20
1921.964861008996
 30
0.0
 10
3018.724709304834
 20
1924.240500845474
 30
0.0
 11
3008.358498367334
 21
1909.07146398024
 31
0.0
 11
3013.412697586084
 21
1917.293937124771
 31
0.0
 11
3018.724709304834
 21
1924.240500845474
 31
0.0
  0
SPLINE
  5
394
330
1F
100
AcDbEntity
  8
red
100
AcDbSpline
210
0.0
220
0.0
230
1.0
 70
  1080
 71
     3
 72
     8
 73
     4
 74
     2
 42
0.000000001
 43
0.0000000001
 44
0.0000000001
 40
0.0
 40
0.0
 40
0.0
 40
0.0
 40
4.033161362623451
 40
4.033161362623451
 40
4.033161362623451
 40
4.033161362623451
 10
3019.741799148583
 20
1922.220664419693
 30
0.0
 10
3018.48659081525
 20
1921.739178417089
 30
0.0
 10
3017.231382481917
 20
1921.257692414485
 30
0.0
 10
3015.976174148584
 20
1920.776206411881
 30
0.0
 11
3019.741799148583
 21
1922.220664419693
 31
0.0
 11
3015.976174148584
 21
1920.776206411881
 31
0.0
  0
SPLINE
  5
395
330
1F
100
AcDbEntity
  8
red
100
AcDbSpline
210
0.0
220
0.0
230
1.0
 70
  1080
 71
     3
 72
     8
 73
     4
 74
     2
 42
0.000000001
 43
0.0000000001
 44
0.0000000001
 40
0.0
 40
0.0
 40
0.0
 40
0.0
 40
7.52271584018634
 40
7.52271584018634
 40
7.52271584018634
 40
7.52271584018634
 10
3013.140724929834
 20
1919.764304556412
 30
0.0
 10
3010.850685867334
 20
1918.742718456151
 30
0.0
 10
3008.560646804834
 20
1917.721132355891
 30
0.0
 10
3006.270607742334
 20
1916.699546255631
 30
0.0
 11
3013.140724929834
 21
1919.764304556412
 31
0.0
 11
3006.270607742334
 21
1916.699546255631
 31
0.0
  0
SPLINE
  5
396
330
1F
100
AcDbEntity
  8
red
100
AcDbSpline
210
0.0
220
0.0
230
1.0
 70
  1064
 71
     3
 72
     9
 73
     5
 74
     3
 42
0.000000001
 43
0.0000000001
 44
0.0000000001
 40
0.0
 40
0.0
 40
0.0
 40
0.0
 40
8.22416436892265
 40
12.51362933925172
 40
12.51362933925172
 40
12.51362933925172
 40
12.51362933925172
 10
3017.462013992334
 20
1927.013968863052
 30
0.0
 10
3014.757125363201
 20
1926.429410402717
 30
0.0
 10
3010.641452063087
 20
1925.539964670407
 30
0.0
 10
3007.016210291938
 20
1923.44025689565
 30
0.0
 10
3005.773537429833
 20
1922.720511831802
 30
0.0
 11
3017.462013992334
 21
1927.013968863052
 31
0.0
 11
3009.559181961084
 21
1924.737540640396
 31
0.0
 11
3005.773537429833
 21
1922.720511831802
 31
0.0
  0
SPLINE
  5
397
330
1F
100
AcDbEntity
  8
red
100
AcDbSpline
210
0.0
220
0.0
230
1.0
 70
  1064
 71
     3
 72
     9
 73
     5
 74
     3
 42
0.000000001
 43
0.0000000001
 44
0.0000000001
 40
0.0
 40
0.0
 40
0.0
 40
0.0
 40
7.112613722333271
 40
13.44972514457889
 40
13.44972514457889
 40
13.44972514457889
 40
13.44972514457889
 10
3003.257424148584
 20
1932.30794469313
 30
0.0
 10
3005.209444943791
 20
1933.70064076269
 30
0.0
 10
3008.900653857558
 20
1936.334184502974
 30
0.0
 10
3013.310828409804
 20
1937.359509802908
 30
0.0
 10
3015.388771804834
 20
1937.84261266188
 30
0.0
 11
3003.257424148584
 21
1932.30794469313
 31
0.0
 11
3009.314553054834
 21
1936.036277212662
 31
0.0
 11
3015.388771804834
 21
1937.84261266188
 31
0.0
  0
SPLINE
  5
398
330
1F
100
AcDbEntity
  8
red
100
AcDbSpline
210
0.0
220
0.0
230
1.0
 70
  1064
 71
     3
 72
     9
 73
     5
 74
     3
 42
0.000000001
 43
0.0000000001
 44
0.0000000001
 40
0.0
 40
0.0
 40
0.0
 40
0.0
 40
10.31501771512669
 40
13.94431972146775
 40
13.94431972146775
 40
13.94431972146775
 40
13.94431972146775
 10
3015.311623367334
 20
1939.365226187271
 30
0.0
 10
3011.998043283851
 20
1938.258089626855
 30
0.0
 10
3007.518591926341
 20
1936.76141103646
 30
0.0
 10
3003.947206184962
 20
1933.752511869592
 30
0.0
 10
3003.017678054834
 20
1932.969382681412
 30
0.0
 11
3015.311623367334
 21
1939.365226187271
 31
0.0
 11
3005.867775711084
 21
1935.216330923599
 31
0.0
 11
3003.017678054834
 21
1932.969382681412
 31
0.0
  0
SPLINE
  5
399
330
1F
100
AcDbEntity
  8
red
100
AcDbSpline
210
0.0
220
0.0
230
1.0
 70
  1064
 71
     3
 72
     9
 73
     5
 74
     3
 42
0.000000001
 43
0.0000000001
 44
0.0000000001
 40
0.0
 40
0.0
 40
0.0
 40
0.0
 40
5.861406673504419
 40
11.20047072596708
 40
11.20047072596708
 40
11.20047072596708
 40
11.20047072596708
 10
3033.999611648584
 20
1978.93279210524
 30
0.0
 10
3036.013362725694
 20
1978.925468057528
 30
0.0
 10
3039.861408296481
 20
1978.91147264882
 30
0.0
 10
3042.936569391287
 20
1981.204722640591
 30
0.0
 10
3044.402443679834
 20
1982.297873892349
 30
0.0
 11
3033.999611648584
 21
1978.93279210524
 31
0.0
 11
3039.829201492334
 21
1979.542685904068
 31
0.0
 11
3044.402443679834
 21
1982.297873892349
 31
0.0
  0
SPLINE
  5
39A
330
1F
100
AcDbEntity
  8
red
100
AcDbSpline
210
0.0
220
0.0
230
1.0
 70
  1064
 71
     3
 72
     9
 73
     5
 74
     3
 42
0.000000001
 43
0.0000000001
 44
0.0000000001
 40
0.0
 40
0.0
 40
0.0
 40
0.0
 40
3.714499066609607
 40
8.216231691018771
 40
8.216231691018771
 40
8.216231691018771
 40
8.216231691018771
 10
3034.976662429834
 20
1973.176993765396
 30
0.0
 10
3036.109193062017
 20
1973.76466047559
 30
0.0
 10
3038.614277571216
 20
1975.064541229755
 30
0.0
 10
3041.388677563015
 20
1974.44143359967
 30
0.0
 10
3042.908791336083
 20
1974.100028433365
 30
0.0
 11
3034.976662429834
 21
1973.176993765396
 31
0.0
 11
3038.429299148584
 21
1974.546958365005
 31
0.0
 11
3042.908791336083
 21
1974.100028433365
 31
0.0
  0
SPLINE
  5
39B
330
1F
100
AcDbEntity
  8
red
100
AcDbSpline
210
0.0
220
0.0
230
1.0
 70
  1064
 71
     3
 72
     9
 73
     5
 74
     3
 42
0.000000001
 43
0.0000000001
 44
0.0000000001
 40
0.0
 40
0.0
 40
0.0
 40
0.0
 40
3.308958860026972
 40
6.716508364287379
 40
6.716508364287379
 40
6.716508364287379
 40
6.716508364287379
 10
3036.093361648584
 20
1969.052237906021
 30
0.0
 10
3037.154071624982
 20
1969.42994203946
 30
0.0
 10
3039.307095500444
 20
1970.196604025536
 30
0.0
 10
3041.544608743457
 20
1969.722916931536
 30
0.0
 10
3042.679787429834
 20
1969.48259679274
 30
0.0
 11
3036.093361648584
 21
1969.052237906021
 31
0.0
 11
3039.295998367334
 21
1969.884299673599
 31
0.0
 11
3042.679787429834
 21
1969.48259679274
 31
0.0
  0
SPLINE
  5
39C
330
1F
100
AcDbEntity
  8
red
100
AcDbSpline
210
0.0
220
0.0
230
1.0
 70
  1080
 71
     3
 72
     8
 73
     4
 74
     2
 42
0.000000001
 43
0.0000000001
 44
0.0000000001
 40
0.0
 40
0.0
 40
0.0
 40
0.0
 40
6.445430962095253
 40
6.445430962095253
 40
6.445430962095253
 40
6.445430962095253
 10
3043.442971023584
 20
1962.081077017349
 30
0.0
 10
3041.294859044417
 20
1962.041475373469
 30
0.0
 10
3039.14674706525
 20
1962.001873729589
 30
0.0
 10
3036.998635086084
 20
1961.962272085709
 30
0.0
 11
3043.442971023584
 21
1962.081077017349
 31
0.0
 11
3036.998635086084
 21
1961.962272085709
 31
0.0
  0
SPLINE
  5
39D
330
1F
100
AcDbEntity
  8
red
100
AcDbSpline
210
0.0
220
0.0
230
1.0
 70
  1064
 71
     3
 72
    16
 73
    12
 74
    10
 42
0.000000001
 43
0.0000000001
 44
0.0000000001
 40
0.0
 40
0.0
 40
0.0
 40
0.0
 40
15.48397349502034
 40
30.17176348831606
 40
50.83473848190187
 40
65.5550293162511
 40
82.86043672660019
 40
97.94620583056236
 40
105.882149255405
 40
111.1778040337995
 40
115.9861265530338
 40
115.9861265530338
 40
115.9861265530338
 40
115.9861265530338
 10
3020.522072586084
 20
1806.844291128678
 30
0.0
 10
3018.799033980803
 20
1801.714895295913
 30
0.0
 10
3015.441555146543
 20
1791.719856363956
 30
0.0
 10
3027.99686793994
 20
1775.38739003823
 30
0.0
 10
3046.148624925169
 20
1780.972996070931
 30
0.0
 10
3063.231813873424
 20
1785.643697889979
 30
0.0
 10
3078.935166274586
 20
1773.865304657789
 30
0.0
 10
3075.404574452021
 20
1758.441443022806
 30
0.0
 10
3065.773292021771
 20
1752.495505182656
 30
0.0
 10
3060.047728819042
 20
1757.630555239285
 30
0.0
 10
3061.301100951437
 20
1761.038364606454
 30
0.0
 10
3061.897560867334
 20
1762.660087027115
 30
0.0
 11
3020.522072586084
 21
1806.844291128678
 31
0.0
 11
3018.199806961084
 21
1791.535453238052
 31
0.0
 11
3027.226174148584
 21
1779.94856969313
 31
0.0
 11
3047.840920242334
 21
1781.359519400162
 31
0.0
 11
3062.455178054834
 21
1783.123160757584
 31
0.0
 11
3075.783791336084
 21
1772.085715689224
 31
0.0
 11
3072.281838211084
 21
1757.412040152115
 31
0.0
 11
3064.983498367334
 21
1754.295401968521
 31
0.0
 11
3061.118263992334
 21
1757.915336050552
 31
0.0
 11
3061.897560867334
 21
1762.660087027115
 31
0.0
  0
SPLINE
  5
39E
330
1F
100
AcDbEntity
  8
red
100
AcDbSpline
210
0.0
220
0.0
230
1.0
 70
  1064
 71
     3
 72
    14
 73
    10
 74
     8
 42
0.000000001
 43
0.0000000001
 44
0.0000000001
 40
0.0
 40
0.0
 40
0.0
 40
0.0
 40
8.489436199668711
 40
26.58891486267078
 40
40.57215371419465
 40
51.62404591701839
 40
61.38028048910948
 40
68.21839041291879
 40
72.18113048518308
 40
72.18113048518308
 40
72.18113048518308
 40
72.18113048518308
 10
3027.691994461084
 20
1779.736228384537
 30
0.0
 10
3030.264483066443
 20
1778.384131422012
 30
0.0
 10
3038.321517586091
 20
1774.149363626235
 30
0.0
 10
3052.359864223646
 20
1779.442455210393
 30
0.0
 10
3066.613072549443
 20
1770.705065907909
 30
0.0
 10
3068.164670613202
 20
1758.521505676282
 30
0.0
 10
3063.907426943356
 20
1748.704944182919
 30
0.0
 10
3055.280381421918
 20
1748.813808192529
 30
0.0
 10
3053.319593873716
 20
1751.984759549577
 30
0.0
 10
3052.600197586084
 20
1753.148154654068
 30
0.0
 11
3027.691994461084
 21
1779.736228384537
 31
0.0
 11
3035.525978836084
 21
1776.465262808365
 31
0.0
 11
3053.625099929833
 21
1776.579032339615
 31
0.0
 11
3065.349221023584
 21
1768.958274282974
 31
0.0
 11
3067.056740554834
 21
1758.039084829849
 31
0.0
 11
3061.934181961084
 21
1749.735862173599
 31
0.0
 11
3055.104592117334
 21
1750.077109732193
 31
0.0
 11
3052.600197586084
 21
1753.148154654068
 31
0.0
  0
SPLINE
  5
39F
330
1F
100
AcDbEntity
  8
red
100
AcDbSpline
210
0.0
220
0.0
230
1.0
 70
  1064
 71
     3
 72
    14
 73
    10
 74
     8
 42
0.000000001
 43
0.0000000001
 44
0.0000000001
 40
0.0
 40
0.0
 40
0.0
 40
0.0
 40
14.31360461676236
 40
26.84750892709117
 40
38.94746636161691
 40
45.41991500887102
 40
56.36661901588816
 40
69.49636739373937
 40
73.47464199869705
 40
73.47464199869705
 40
73.47464199869705
 40
73.47464199869705
 10
3072.826271804834
 20
1777.078544058365
 30
0.0
 10
3069.578863848342
 20
1781.093335812071
 30
0.0
 10
3063.487818550102
 20
1788.623735060476
 30
0.0
 10
3049.351201829655
 20
1786.131795804889
 30
0.0
 10
3039.674276775943
 20
1783.270735203511
 30
0.0
 10
3029.601895639931
 20
1783.064584627211
 30
0.0
 10
3020.343366592965
 20
1790.728807090287
 30
0.0
 10
3022.459250044582
 20
1801.348228613909
 30
0.0
 10
3025.23935952987
 20
1806.269587654514
 30
0.0
 10
3025.885842117334
 20
1807.413993277115
 30
0.0
 11
3072.826271804834
 21
1777.078544058365
 31
0.0
 11
3062.045510086084
 21
1786.494193472427
 31
0.0
 11
3049.524513992334
 21
1785.925498404068
 31
0.0
 11
3037.686135086083
 21
1783.423148550552
 31
0.0
 11
3031.220314773584
 21
1783.71599523024
 31
0.0
 11
3022.888771804834
 21
1790.816398062271
 31
0.0
 11
3024.026955398584
 21
1803.896720327896
 31
0.0
 11
3025.885842117334
 21
1807.413993277115
 31
0.0
  0
SPLINE
  5
3A0
330
1F
100
AcDbEntity
  8
red
100
AcDbSpline
210
0.0
220
0.0
230
1.0
 70
  1064
 71
     3
 72
    10
 73
     6
 74
     4
 42
0.000000001
 43
0.0000000001
 44
0.0000000001
 40
0.0
 40
0.0
 40
0.0
 40
0.0
 40
7.051195902334654
 40
16.10229253870778
 40
21.32176652868362
 40
21.32176652868362
 40
21.32176652868362
 40
21.32176652868362
 10
3027.232521804834
 20
1807.42806188063
 30
0.0
 10
3026.865919648081
 20
1805.114166840678
 30
0.0
 10
3026.028737522509
 20
1799.830096542072
 30
0.0
 10
3028.262952568548
 20
1792.263004309326
 30
0.0
 10
3032.353921891557
 20
1789.66931031977
 30
0.0
 10
3033.850197586084
 20
1788.720664419693
 30
0.0
 11
3027.232521804834
 21
1807.42806188063
 31
0.0
 11
3026.616799148584
 21
1800.403800406021
 31
0.0
 11
3029.708596023584
 21
1791.89714757399
 31
0.0
 11
3033.850197586084
 21
1788.720664419693
 31
0.0
  0
SPLINE
  5
3A1
330
1F
100
AcDbEntity
  8
red
100
AcDbSpline
210
0.0
220
0.0
230
1.0
 70
  1064
 71
     3
 72
    10
 73
     6
 74
     4
 42
0.000000001
 43
0.0000000001
 44
0.0000000001
 40
0.0
 40
0.0
 40
0.0
 40
0.0
 40
6.921371687682715
 40
14.05150927682362
 40
16.06769267951734
 40
16.06769267951734
 40
16.06769267951734
 40
16.06769267951734
 10
3028.899513992334
 20
1807.022483267349
 30
0.0
 10
3029.178906747374
 20
1804.73210732624
 30
0.0
 10
3029.746119442557
 20
1800.082271970456
 30
0.0
 10
3032.581843776549
 20
1795.111032421331
 30
0.0
 10
3035.134636701335
 20
1793.427300257598
 30
0.0
 10
3035.697365554834
 20
1793.056144156021
 30
0.0
 11
3028.899513992334
 21
1807.022483267349
 31
0.0
 11
3030.201760086084
 21
1800.224723257583
 31
0.0
 11
3034.054787429834
 21
1794.225303091568
 31
0.0
 11
3035.697365554834
 21
1793.056144156021
 31
0.0
  0
SPLINE
  5
3A2
330
1F
100
AcDbEntity
  8
red
100
AcDbSpline
210
0.0
220
0.0
230
1.0
 70
  1064
 71
     3
 72
     9
 73
     5
 74
     3
 42
0.000000001
 43
0.0000000001
 44
0.0000000001
 40
0.0
 40
0.0
 40
0.0
 40
0.0
 40
4.56735109757021
 40
12.9388718549238
 40
12.9388718549238
 40
12.9388718549238
 40
12.9388718549238
 10
3031.436135086084
 20
1809.879966177506
 30
0.0
 10
3031.162143514747
 20
1808.333681902755
 30
0.0
 10
3030.385951416719
 20
1803.953205417618
 30
0.0
 10
3033.130271540233
 20
1800.275860502154
 30
0.0
 10
3034.905861648584
 20
1797.896598257583
 30
0.0
 11
3031.436135086084
 21
1809.879966177506
 31
0.0
 11
3031.052834304834
 21
1805.328727163833
 31
0.0
 11
3034.905861648584
 21
1797.896598257583
 31
0.0
  0
SPLINE
  5
3A3
330
1F
100
AcDbEntity
  8
red
100
AcDbSpline
210
0.0
220
0.0
230
1.0
 70
  1064
 71
     3
 72
     9
 73
     5
 74
     3
 42
0.000000001
 43
0.0000000001
 44
0.0000000001
 40
0.0
 40
0.0
 40
0.0
 40
0.0
 40
6.265105695753964
 40
10.12476451732723
 40
10.12476451732723
 40
10.12476451732723
 40
10.12476451732723
 10
3034.196877273584
 20
1812.848166861099
 30
0.0
 10
3034.467632527412
 20
1810.658258606403
 30
0.0
 10
3034.905188303797
 20
1807.119243229795
 30
0.0
 10
3037.661695058022
 20
1804.989797000611
 30
0.0
 10
3038.712502273584
 20
1804.178031363052
 30
0.0
 11
3034.196877273584
 21
1812.848166861099
 31
0.0
 11
3035.897072586084
 21
1806.818168081802
 31
0.0
 11
3038.712502273584
 21
1804.178031363052
 31
0.0
  0
SPLINE
  5
3A4
330
1F
100
AcDbEntity
  8
red
100
AcDbSpline
210
0.0
220
0.0
230
1.0
 70
  1064
 71
     3
 72
     9
 73
     5
 74
     3
 42
0.000000001
 43
0.0000000001
 44
0.0000000001
 40
0.0
 40
0.0
 40
0.0
 40
0.0
 40
4.894193904436595
 40
13.54551611642482
 40
13.54551611642482
 40
13.54551611642482
 40
13.54551611642482
 10
3036.717385086084
 20
1828.205130972427
 30
0.0
 10
3036.988966049805
 20
1826.594060564609
 30
0.0
 10
3037.740612672894
 20
1822.135148514962
 30
0.0
 10
3039.264268205379
 20
1817.8708841935
 30
0.0
 10
3040.237404617334
 20
1815.147361197037
 30
0.0
 11
3036.717385086084
 21
1828.205130972427
 31
0.0
 11
3037.632912429834
 21
1823.397330679459
 31
0.0
 11
3040.237404617334
 21
1815.147361197037
 31
0.0
  0
SPLINE
  5
3A5
330
1F
100
AcDbEntity
  8
red
100
AcDbSpline
210
0.0
220
0.0
230
1.0
 70
  1064
 71
     3
 72
     9
 73
     5
 74
     3
 42
0.000000001
 43
0.0000000001
 44
0.0000000001
 40
0.0
 40
0.0
 40
0.0
 40
0.0
 40
4.695347708460589
 40
7.840629477073518
 40
7.840629477073518
 40
7.840629477073518
 40
7.840629477073518
 10
3036.295510086084
 20
1817.470481314224
 30
0.0
 10
3036.648878297161
 20
1815.911192313474
 30
0.0
 10
3037.238957964112
 20
1813.307379334826
 30
0.0
 10
3038.987595764173
 20
1811.318169383533
 30
0.0
 10
3039.689064773584
 20
1810.52019444899
 30
0.0
 11
3036.295510086084
 21
1817.470481314224
 31
0.0
 11
3037.771096023584
 21
1813.013022818131
 31
0.0
 11
3039.689064773584
 21
1810.52019444899
 31
0.0
  0
SPLINE
  5
3A6
330
1F
100
AcDbEntity
  8
red
100
AcDbSpline
210
0.0
220
0.0
230
1.0
 70
  1064
 71
     3
 72
     9
 73
     5
 74
     3
 42
0.000000001
 43
0.0000000001
 44
0.0000000001
 40
0.0
 40
0.0
 40
0.0
 40
0.0
 40
8.062486728252531
 40
29.98031774405248
 40
29.98031774405248
 40
29.98031774405248
 40
29.98031774405248
 10
3125.753517898584
 20
1794.956839956802
 30
0.0
 10
3127.12466433109
 20
1792.524807851424
 30
0.0
 10
3132.223265681478
 20
1783.481308278584
 30
0.0
 10
3143.436600014258
 20
1783.343327864585
 30
0.0
 10
3151.634377273584
 20
1783.242453970474
 30
0.0
 11
3125.753517898584
 21
1794.956839956802
 31
0.0
 11
3130.309181961084
 21
1788.304801382584
 31
0.0
 11
3151.634377273584
 21
1783.242453970474
 31
0.0
  0
SPLINE
  5
3A7
330
1F
100
AcDbEntity
  8
red
100
AcDbSpline
210
0.0
220
0.0
230
1.0
 70
  1064
 71
     3
 72
    14
 73
    10
 74
     8
 42
0.000000001
 43
0.0000000001
 44
0.0000000001
 40
0.0
 40
0.0
 40
0.0
 40
0.0
 40
9.098572710859652
 40
30.5676064569394
 40
47.92303692941946
 40
58.95985918113446
 40
68.9474613667625
 40
77.42999210640173
 40
84.38003962340514
 40
84.38003962340514
 40
84.38003962340514
 40
84.38003962340514
 10
3123.671486648584
 20
1790.648154654068
 30
0.0
 10
3125.702947379472
 20
1788.154203954939
 30
0.0
 10
3132.527852134082
 20
1779.775515789597
 30
0.0
 10
3150.759549441521
 20
1786.736639846582
 30
0.0
 10
3166.830079881996
 20
1776.794324514891
 30
0.0
 10
3170.137141974297
 20
1763.80600212168
 30
0.0
 10
3163.792500570623
 20
1752.687638378065
 30
0.0
 10
3153.088777412978
 20
1758.265614674844
 30
0.0
 10
3154.441963391896
 20
1763.716805799685
 30
0.0
 10
3155.051369461084
 20
1766.171744741958
 30
0.0
 11
3123.671486648584
 21
1790.648154654068
 31
0.0
 11
3130.191506179834
 21
1784.302024282974
 31
0.0
 11
3151.634377273584
 21
1783.242453970474
 31
0.0
 11
3166.361428054834
 21
1774.059592642349
 31
0.0
 11
3168.482521804834
 21
1763.228507437271
 31
0.0
 11
3162.356056961084
 21
1755.340629019302
 31
0.0
 11
3154.815529617334
 21
1759.225699820084
 31
0.0
 11
3155.051369461084
 21
1766.171744741958
 31
0.0
  0
SPLINE
  5
3A8
330
1F
100
AcDbEntity
  8
red
100
AcDbSpline
210
0.0
220
0.0
230
1.0
 70
  1064
 71
     3
 72
    19
 73
    15
 74
    13
 42
0.000000001
 43
0.0000000001
 44
0.0000000001
 40
0.0
 40
0.0
 40
0.0
 40
0.0
 40
11.45895730228844
 40
22.37119668637425
 40
53.69338778042164
 40
79.8536082738612
 40
97.40471970560019
 40
111.8870004279143
 40
123.5109287530578
 40
136.540884209411
 40
158.2862457554477
 40
170.5191835676126
 40
183.2424463097164
 40
188.1808808073999
 40
188.1808808073999
 40
188.1808808073999
 40
188.1808808073999
 10
3127.466408523584
 20
1786.360129751724
 30
0.0
 10
3130.484268633874
 20
1783.9952767229
 30
0.0
 10
3136.376003834404
 20
1779.378400086871
 30
0.0
 10
3147.266244950565
 20
1764.956404628408
 30
0.0
 10
3159.667591956661
 20
1746.807746857491
 30
0.0
 10
3161.077960456307
 20
1715.401753040969
 30
0.0
 10
3138.906624226008
 20
1709.704110098351
 30
0.0
 10
3135.875533189197
 20
1692.5584367091
 30
0.0
 10
3144.836098078102
 20
1681.556077622775
 30
0.0
 10
3162.049764855688
 20
1679.264069032887
 30
0.0
 10
3173.650891512544
 20
1694.450799590678
 30
0.0
 10
3191.138120158975
 20
1687.657817762771
 30
0.0
 10
3191.556105726975
 20
1673.138131072249
 30
0.0
 10
3185.537095434586
 20
1671.524441942068
 30
0.0
 10
3183.854103836084
 20
1671.073233999771
 30
0.0
 11
3127.466408523584
 21
1786.360129751724
 31
0.0
 11
3136.164650711084
 21
1778.900351919693
 31
0.0
 11
3143.066017898584
 21
1770.447654165787
 31
0.0
 11
3157.829689773584
 21
1742.823142447037
 31
0.0
 11
3154.980568679834
 21
1716.81853429274
 31
0.0
 11
3140.733498367334
 21
1706.56853429274
 31
0.0
 11
3138.074318679834
 21
1692.332480825943
 31
0.0
 11
3145.292580398584
 21
1683.22136632399
 31
0.0
 11
3158.210060867334
 21
1681.513022818131
 31
0.0
 11
3177.775002273584
 21
1691.003745474381
 31
0.0
 11
3188.793068679834
 21
1685.688956656021
 31
0.0
 11
3188.413185867334
 21
1672.97136632399
 31
0.0
 11
3183.854103836084
 21
1671.073233999771
 31
0.0
  0
SPLINE
  5
3A9
330
1F
100
AcDbEntity
  8
red
100
AcDbSpline
210
0.0
220
0.0
230
1.0
 70
  1064
 71
     3
 72
    14
 73
    10
 74
     8
 42
0.000000001
 43
0.0000000001
 44
0.0000000001
 40
0.0
 40
0.0
 40
0.0
 40
0.0
 40
18.24895615768666
 40
33.84141168030898
 40
48.80217629312767
 40
72.8841292424137
 40
77.95384865537871
 40
85.07296111128232
 40
92.52669158016066
 40
92.52669158016066
 40
92.52669158016066
 40
92.52669158016066
 10
3135.358010086084
 20
1712.418113150162
 30
0.0
 10
3133.087225516203
 20
1706.735576171262
 30
0.0
 10
3128.876214497128
 20
1696.197709148632
 30
0.0
 10
3133.440435572852
 20
1678.053679824906
 30
0.0
 10
3153.633806038572
 20
1672.779225904488
 30
0.0
 10
3166.982680076257
 20
1680.722358056792
 30
0.0
 10
3177.786707432908
 20
1685.35659540638
 30
0.0
 10
3184.693996208653
 20
1688.193768243557
 30
0.0
 10
3188.367668723877
 20
1684.304395214081
 30
0.0
 10
3190.246681961084
 20
1682.315055288833
 30
0.0
 11
3135.358010086084
 21
1712.418113150162
 31
0.0
 11
3130.690529617334
 21
1694.776145376724
 31
0.0
 11
3135.696388992334
 21
1680.009086050552
 31
0.0
 11
3149.878517898584
 21
1675.245505728287
 31
0.0
 11
3172.641701492334
 21
1683.105399527115
 31
0.0
 11
3177.289650711084
 21
1685.129905142349
 31
0.0
 11
3184.230080398584
 21
1686.714896597427
 31
0.0
 11
3190.246681961084
 21
1682.315055288833
 31
0.0
  0
SPLINE
  5
3AA
330
1F
100
AcDbEntity
  8
red
100
AcDbSpline
210
0.0
220
0.0
230
1.0
 70
  1064
 71
     3
 72
    12
 73
     8
 74
     6
 42
0.000000001
 43
0.0000000001
 44
0.0000000001
 40
0.0
 40
0.0
 40
0.0
 40
0.0
 40
11.01472663259767
 40
23.83513985268287
 40
36.21473298496918
 40
53.67448880890332
 40
64.33253444191105
 40
64.33253444191105
 40
64.33253444191105
 40
64.33253444191105
 10
3129.685158523584
 20
1699.835227407974
 30
0.0
 10
3129.109400546976
 20
1696.202656655755
 30
0.0
 10
3127.863498369691
 20
1688.342013828028
 30
0.0
 10
3131.985517575198
 20
1675.817708164049
 30
0.0
 10
3145.904992708118
 20
1669.114956067763
 30
0.0
 10
3160.295358546576
 20
1672.653105695448
 30
0.0
 10
3167.063177725793
 20
1679.200135144537
 30
0.0
 10
3169.628517898584
 20
1681.681785025161
 30
0.0
 11
3129.685158523584
 21
1699.835227407974
 31
0.0
 11
3128.803322586084
 21
1688.855857290787
 31
0.0
 11
3133.421486648584
 21
1676.896109976334
 31
0.0
 11
3144.396584304834
 21
1671.168845572037
 31
0.0
 11
3161.469338211084
 21
1674.82454625563
 31
0.0
 11
3169.628517898584
 21
1681.681785025161
 31
0.0
  0
SPLINE
  5
3AB
330
1F
100
AcDbEntity
  8
red
100
AcDbSpline
210
0.0
220
0.0
230
1.0
 70
  1064
 71
     3
 72
    11
 73
     7
 74
     5
 42
0.000000001
 43
0.0000000001
 44
0.0000000001
 40
0.0
 40
0.0
 40
0.0
 40
0.0
 40
10.23031922381691
 40
25.76930892135254
 40
42.01096037517833
 40
63.2996331895245
 40
63.2996331895245
 40
63.2996331895245
 40
63.2996331895245
 10
3125.262306961084
 20
1690.416617788834
 30
0.0
 10
3125.48281166962
 20
1686.971363846708
 30
0.0
 10
3126.038244381794
 20
1678.293060540157
 30
0.0
 10
3136.379683529638
 20
1666.49533360219
 30
0.0
 10
3156.393542335702
 20
1665.834739933918
 30
0.0
 10
3164.838312719315
 20
1675.946179612707
 30
0.0
 10
3169.628517898584
 20
1681.681785025161
 30
0.0
 11
3125.262306961084
 21
1690.416617788834
 31
0.0
 11
3126.836037429834
 21
1680.308066763443
 31
0.0
 11
3137.201760086084
 21
1668.731711782974
 31
0.0
 11
3153.420998367334
 21
1667.87874547438
 31
0.0
 11
3169.628517898584
 21
1681.681785025161
 31
0.0
  0
SPLINE
  5
3AC
330
1F
100
AcDbEntity
  8
red
100
AcDbSpline
210
0.0
220
0.0
230
1.0
 70
  1064
 71
     3
 72
    15
 73
    11
 74
     9
 42
0.000000001
 43
0.0000000001
 44
0.0000000001
 40
0.0
 40
0.0
 40
0.0
 40
0.0
 40
9.028945824073943
 40
22.12452751213224
 40
43.80818117329685
 40
57.58785554895339
 40
70.43942336173713
 40
85.14161680097199
 40
96.19958425184357
 40
108.3200348973047
 40
108.3200348973047
 40
108.3200348973047
 40
108.3200348973047
 10
3120.159767898584
 20
1680.271872915787
 30
0.0
 10
3120.342892931431
 20
1677.124388995602
 30
0.0
 10
3120.791622484838
 20
1669.411794863025
 30
0.0
 10
3135.066479595299
 20
1660.920624556683
 30
0.0
 10
3152.6262335208
 20
1662.711035252378
 30
0.0
 10
3164.793539844057
 20
1674.666433651942
 30
0.0
 10
3180.018622223026
 20
1673.102291873541
 30
0.0
 10
3189.89797507641
 20
1662.5776638108
 30
0.0
 10
3187.600047591022
 20
1647.603200786366
 30
0.0
 10
3179.329706658887
 20
1645.77447518155
 30
0.0
 10
3175.004982742334
 20
1644.81819859938
 30
0.0
 11
3120.159767898584
 21
1680.271872915787
 31
0.0
 11
3121.835060867334
 21
1671.399711050552
 31
0.0
 11
3132.444435867334
 21
1663.722770132584
 31
0.0
 11
3154.028908523584
 21
1665.794333853287
 31
0.0
 11
3165.858010086084
 21
1672.86199132399
 31
0.0
 11
3178.662697586084
 21
1671.765281118912
 31
0.0
 11
3188.174416336084
 21
1660.554496206802
 31
0.0
 11
3186.102150711084
 21
1649.692435659927
 31
0.0
 11
3175.004982742334
 21
1644.81819859938
 31
0.0
  0
SPLINE
  5
3AD
330
1F
100
AcDbEntity
  8
red
100
AcDbSpline
210
0.0
220
0.0
230
1.0
 70
  1064
 71
     3
 72
    16
 73
    12
 74
    10
 42
0.000000001
 43
0.0000000001
 44
0.0000000001
 40
0.0
 40
0.0
 40
0.0
 40
0.0
 40
10.87894263269994
 40
23.06844625083786
 40
35.76875178080797
 40
56.48672355772396
 40
68.62773377900144
 40
78.08756062049522
 40
86.61936322564281
 40
94.1711760666646
 40
97.6971635223874
 40
97.6971635223874
 40
97.6971635223874
 40
97.6971635223874
 10
3120.159767898584
 20
1680.271872915787
 30
0.0
 10
3119.639512639282
 20
1676.573871146706
 30
0.0
 10
3118.536328176315
 20
1668.732377912875
 30
0.0
 10
3127.162553094755
 20
1658.075102911976
 30
0.0
 10
3143.438630177873
 20
1657.27995686279
 30
0.0
 10
3157.198286653074
 20
1663.625991086437
 30
0.0
 10
3170.025150191238
 20
1670.7566965736
 30
0.0
 10
3180.543348113738
 20
1668.362680325321
 30
0.0
 10
3187.077432055505
 20
1662.508821593707
 30
0.0
 10
3189.04334752176
 20
1655.505947408238
 30
0.0
 10
3187.493428475837
 20
1652.095656702029
 30
0.0
 10
3187.000099929834
 20
1651.010184683365
 30
0.0
 11
3120.159767898584
 21
1680.271872915787
 31
0.0
 11
3120.081642898584
 21
1669.393210806411
 31
0.0
 11
3127.730080398584
 21
1659.901877798599
 31
0.0
 11
3140.312599929834
 21
1658.176200308365
 31
0.0
 11
3159.802834304834
 21
1665.202231802506
 31
0.0
 11
3171.151467117334
 21
1669.516471304459
 31
0.0
 11
3180.403420242334
 21
1667.544242300552
 31
0.0
 11
3186.624123367334
 21
1661.705192007584
 31
0.0
 11
3188.210549148584
 21
1654.321891226334
 31
0.0
 11
3187.000099929834
 21
1651.010184683365
 31
0.0
  0
SPLINE
  5
3AE
330
1F
100
AcDbEntity
  8
red
100
AcDbSpline
210
0.0
220
0.0
230
1.0
 70
  1064
 71
     3
 72
    15
 73
    11
 74
     9
 42
0.000000001
 43
0.0000000001
 44
0.0000000001
 40
0.0
 40
0.0
 40
0.0
 40
0.0
 40
17.76631846957485
 40
31.55753221027955
 40
44.75891734327922
 40
54.09000537987708
 40
61.12421835811844
 40
64.40115255101997
 40
69.57902675451506
 40
76.54469531823711
 40
76.54469531823711
 40
76.54469531823711
 40
76.54469531823711
 10
3136.513283523584
 20
1778.539084829849
 30
0.0
 10
3141.951690598583
 20
1776.358659142881
 30
0.0
 10
3151.611694540075
 20
1772.485664635523
 30
0.0
 10
3165.350822662737
 20
1764.882918981283
 30
0.0
 10
3169.618753945652
 20
1753.164863492955
 30
0.0
 10
3172.823356599789
 20
1743.374910666733
 30
0.0
 10
3169.212760183989
 20
1736.977178972803
 30
0.0
 10
3163.812294588775
 20
1735.036315562146
 30
0.0
 10
3159.652423991842
 20
1739.875160528882
 30
0.0
 10
3159.973590285205
 20
1743.958535286999
 30
0.0
 10
3160.157814773584
 20
1746.300803579849
 30
0.0
 11
3136.513283523584
 21
1778.539084829849
 31
0.0
 11
3152.837013992334
 21
1771.526389517349
 31
0.0
 11
3164.196877273584
 21
1763.706473745865
 31
0.0
 11
3170.003029617334
 21
1751.850455679459
 31
0.0
 11
3171.517678054834
 21
1742.643119253677
 31
0.0
 11
3167.731056961084
 21
1736.715079702896
 31
0.0
 11
3164.575295242334
 21
1735.83220616774
 31
0.0
 11
3160.788674148584
 21
1739.363761343521
 31
0.0
 11
3160.157814773584
 21
1746.300803579849
 31
0.0
  0
SPLINE
  5
3AF
330
1F
100
AcDbEntity
  8
red
100
AcDbSpline
210
0.0
220
0.0
230
1.0
 70
  1080
 71
     3
 72
     8
 73
     4
 74
     2
 42
0.000000001
 43
0.0000000001
 44
0.0000000001
 40
0.0
 40
0.0
 40
0.0
 40
0.0
 40
16.97192650953041
 40
16.97192650953041
 40
16.97192650953041
 40
16.97192650953041
 10
3122.915627273584
 20
1788.695365347427
 30
0.0
 10
3127.448179356917
 20
1785.309938508235
 30
0.0
 10
3131.980731440251
 20
1781.924511669042
 30
0.0
 10
3136.513283523584
 20
1778.539084829849
 30
0.0
 11
3122.915627273584
 21
1788.695365347427
 31
0.0
 11
3136.513283523584
 21
1778.539084829849
 31
0.0
  0
SPLINE
  5
3B0
330
1F
100
AcDbEntity
  8
red
100
AcDbSpline
210
0.0
220
0.0
230
1.0
 70
  1064
 71
     3
 72
    10
 73
     6
 74
     4
 42
0.000000001
 43
0.0000000001
 44
0.0000000001
 40
0.0
 40
0.0
 40
0.0
 40
0.0
 40
24.31067702474316
 40
48.13695066280605
 40
60.55415966696273
 40
60.55415966696273
 40
60.55415966696273
 40
60.55415966696273
 10
3145.989846023584
 20
1766.408103384537
 30
0.0
 10
3149.073151218895
 20
1758.786094330153
 30
0.0
 10
3155.17832508608
 20
1743.693948873699
 30
0.0
 10
3148.813966053293
 20
1721.816254291581
 30
0.0
 10
3138.791693659877
 20
1714.816325729046
 30
0.0
 10
3135.358010086084
 20
1712.418113150162
 30
0.0
 11
3145.989846023584
 21
1766.408103384537
 31
0.0
 11
3152.392189773584
 21
1742.955619253677
 31
0.0
 11
3144.929787429834
 21
1720.328116812271
 31
0.0
 11
3135.358010086084
 21
1712.418113150162
 31
0.0
  0
SPLINE
  5
3B1
330
1F
100
AcDbEntity
  8
red
100
AcDbSpline
210
0.0
220
0.0
230
1.0
 70
  1064
 71
     3
 72
    12
 73
     8
 74
     6
 42
0.000000001
 43
0.0000000001
 44
0.0000000001
 40
0.0
 40
0.0
 40
0.0
 40
0.0
 40
18.70216222050647
 40
39.61894023968241
 40
67.42106481666178
 40
79.98900135251493
 40
82.30856212299594
 40
82.30856212299594
 40
82.30856212299594
 40
82.30856212299594
 10
3132.068947586084
 20
1716.551413931412
 30
0.0
 10
3136.642352057892
 20
1721.065822344146
 30
0.0
 10
3146.330720510914
 20
1730.629212663022
 30
0.0
 10
3147.406107923162
 20
1754.887855235719
 30
0.0
 10
3137.49504837144
 20
1773.917791429128
 30
0.0
 10
3126.539235639204
 20
1783.070380994435
 30
0.0
 10
3122.883207462529
 20
1786.425065835261
 30
0.0
 10
3122.313576492334
 20
1786.947745718521
 30
0.0
 11
3132.068947586084
 21
1716.551413931412
 31
0.0
 11
3143.771096023584
 21
1731.140128531021
 31
0.0
 11
3145.700783523583
 21
1751.967704214615
 31
0.0
 11
3133.213967117334
 21
1776.80794469313
 31
0.0
 11
3124.026467117334
 21
1785.383658804458
 31
0.0
 11
3122.313576492334
 21
1786.947745718521
 31
0.0
  0
SPLINE
  5
3B2
330
1F
100
AcDbEntity
  8
red
100
AcDbSpline
210
0.0
220
0.0
230
1.0
 70
  1064
 71
     3
 72
    11
 73
     7
 74
     5
 42
0.000000001
 43
0.0000000001
 44
0.0000000001
 40
0.0
 40
0.0
 40
0.0
 40
0.0
 40
5.840606965631739
 40
26.16624553551217
 40
48.73465200458032
 40
66.62877812267542
 40
66.62877812267542
 40
66.62877812267542
 40
66.62877812267542
 10
3121.629006179834
 20
1784.724051870865
 30
0.0
 10
3122.761575030191
 20
1783.141944892939
 30
0.0
 10
3127.835546759276
 20
1776.054017235513
 30
0.0
 10
3139.649526525554
 20
1764.407037012633
 30
0.0
 10
3143.924226210208
 20
1743.184981085493
 30
0.0
 10
3140.733451740578
 20
1730.039785959727
 30
0.0
 10
3139.322365554834
 20
1724.226462759537
 30
0.0
 11
3121.629006179834
 21
1784.724051870865
 31
0.0
 11
3125.089943679834
 21
1780.019309439224
 31
0.0
 11
3137.448342117334
 21
1763.882346548599
 31
0.0
 11
3142.375099929834
 21
1741.858268179458
 31
0.0
 11
3139.322365554834
 21
1724.226462759537
 31
0.0
  0
SPLINE
  5
3B3
330
1F
100
AcDbEntity
  8
red
100
AcDbSpline
210
0.0
220
0.0
230
1.0
 70
  1064
 71
     3
 72
    11
 73
     7
 74
     5
 42
0.000000001
 43
0.0000000001
 44
0.0000000001
 40
0.0
 40
0.0
 40
0.0
 40
0.0
 40
14.07180810594262
 40
35.10655806905036
 40
56.52708986989771
 40
65.97868666061526
 40
65.97868666061526
 40
65.97868666061526
 40
65.97868666061526
 10
3120.376076492334
 20
1779.848105825943
 30
0.0
 10
3122.722023787223
 20
1775.817877145204
 30
0.0
 10
3128.574728309266
 20
1765.763202142055
 30
0.0
 10
3139.811526936024
 20
1749.68938249728
 30
0.0
 10
3136.80350679423
 20
1730.868231506551
 30
0.0
 10
3131.330845420493
 20
1722.184510172955
 30
0.0
 10
3129.655373367334
 20
1719.525962271255
 30
0.0
 11
3120.376076492334
 21
1779.848105825943
 31
0.0
 11
3127.594826492334
 21
1767.768973745865
 31
0.0
 11
3137.059181961084
 21
1748.983695425552
 31
0.0
 11
3134.336525711084
 21
1727.736899771256
 31
0.0
 11
3129.655373367334
 21
1719.525962271255
 31
0.0
  0
SPLINE
  5
3B4
330
1F
100
AcDbEntity
  8
red
100
AcDbSpline
210
0.0
220
0.0
230
1.0
 70
  1064
 71
     3
 72
    10
 73
     6
 74
     4
 42
0.000000001
 43
0.0000000001
 44
0.0000000001
 40
0.0
 40
0.0
 40
0.0
 40
0.0
 40
17.9138051309618
 40
42.5649993421959
 40
53.21059411730419
 40
53.21059411730419
 40
53.21059411730419
 40
53.21059411730419
 10
3118.216408523584
 20
1769.306052603287
 30
0.0
 10
3122.642402804883
 20
1765.297699947021
 30
0.0
 10
3133.159009538894
 20
1755.773451640761
 30
0.0
 10
3137.082647798312
 20
1734.681892883837
 30
0.0
 10
3129.280118864316
 20
1725.536846028062
 30
0.0
 10
3126.926857742334
 20
1722.778678335708
 30
0.0
 11
3118.216408523584
 21
1769.306052603287
 31
0.0
 11
3130.187599929834
 21
1755.979575552505
 31
0.0
 11
3133.040138992334
 21
1731.49397984938
 31
0.0
 11
3126.926857742334
 21
1722.778678335708
 31
0.0
  0
SPLINE
  5
3B5
330
1F
100
AcDbEntity
  8
red
100
AcDbSpline
210
0.0
220
0.0
230
1.0
 70
  1064
 71
     3
 72
    10
 73
     6
 74
     4
 42
0.000000001
 43
0.0000000001
 44
0.0000000001
 40
0.0
 40
0.0
 40
0.0
 40
0.0
 40
15.89120436252707
 40
32.88051626450641
 40
39.87578955755025
 40
39.87578955755025
 40
39.87578955755025
 40
39.87578955755025
 10
3117.151467117334
 20
1764.446219839615
 30
0.0
 10
3120.743880106218
 20
1760.295331509561
 30
0.0
 10
3128.176947544981
 20
1751.706721852616
 30
0.0
 10
3126.706534405092
 20
1737.09853612398
 30
0.0
 10
3123.417405396418
 20
1729.861135796103
 30
0.0
 10
3122.458107742334
 20
1727.750296988052
 30
0.0
 11
3117.151467117334
 21
1764.446219839615
 31
0.0
 11
3125.909279617334
 21
1751.186088003677
 31
0.0
 11
3125.131447586084
 21
1734.214591421646
 31
0.0
 11
3122.458107742334
 21
1727.750296988052
 31
0.0
  0
SPLINE
  5
3B6
330
1F
100
AcDbEntity
  8
red
100
AcDbSpline
210
0.0
220
0.0
230
1.0
 70
  1064
 71
     3
 72
     9
 73
     5
 74
     3
 42
0.000000001
 43
0.0000000001
 44
0.0000000001
 40
0.0
 40
0.0
 40
0.0
 40
0.0
 40
9.01230828105935
 40
29.78848449658507
 40
29.78848449658507
 40
29.78848449658507
 40
29.78848449658507
 10
3116.238869461084
 20
1760.963157095474
 30
0.0
 10
3117.810091862831
 20
1758.309225841802
 30
0.0
 10
3123.003471038893
 20
1749.537156851312
 30
0.0
 10
3120.026560944878
 20
1739.333457228075
 30
0.0
 10
3117.950295242334
 20
1732.216819204849
 30
0.0
 11
3116.238869461084
 21
1760.963157095474
 31
0.0
 11
3120.204689773584
 21
1752.870322622818
 31
0.0
 11
3117.950295242334
 21
1732.216819204849
 31
0.0
  0
SPLINE
  5
3B7
330
1F
100
AcDbEntity
  8
red
100
AcDbSpline
210
0.0
220
0.0
230
1.0
 70
  1064
 71
     3
 72
    10
 73
     6
 74
     4
 42
0.000000001
 43
0.0000000001
 44
0.0000000001
 40
0.0
 40
0.0
 40
0.0
 40
0.0
 40
7.582585522597077
 40
21.52065317875796
 40
25.42039836272146
 40
25.42039836272146
 40
25.42039836272146
 40
25.42039836272146
 10
3115.535256179834
 20
1758.65901891188
 30
0.0
 10
3116.43866880476
 20
1756.287543839886
 30
0.0
 10
3119.00270579721
 20
1749.556898680081
 30
0.0
 10
3118.469948533569
 20
1740.660999823885
 30
0.0
 10
3116.61148072036
 20
1735.022516026546
 30
0.0
 10
3116.205178054834
 20
1733.789817251724
 30
0.0
 11
3115.535256179834
 21
1758.65901891188
 31
0.0
 11
3117.871193679834
 21
1751.445212759537
 31
0.0
 11
3117.353127273584
 21
1737.51677648024
 31
0.0
 11
3116.205178054834
 21
1733.789817251724
 31
0.0
  0
SPLINE
  5
3B8
330
1F
100
AcDbEntity
  8
red
100
AcDbSpline
210
0.0
220
0.0
230
1.0
 70
  1064
 71
     3
 72
     9
 73
     5
 74
     3
 42
0.000000001
 43
0.0000000001
 44
0.0000000001
 40
0.0
 40
0.0
 40
0.0
 40
0.0
 40
9.185334732686966
 40
16.87040630843049
 40
16.87040630843049
 40
16.87040630843049
 40
16.87040630843049
 10
3113.436623367334
 20
1752.849357046646
 30
0.0
 10
3113.817181372167
 20
1749.79781259989
 30
0.0
 10
3114.516139913397
 20
1744.193139914223
 30
0.0
 10
3113.872432960355
 20
1738.586616797224
 30
0.0
 10
3113.579201492334
 20
1736.032645620865
 30
0.0
 11
3113.436623367334
 21
1752.849357046646
 31
0.0
 11
3114.180275711084
 21
1743.694175161881
 31
0.0
 11
3113.579201492334
 21
1736.032645620865
 31
0.0
  0
ENDSEC
  0
SECTION
  2
OBJECTS
  0
DICTIONARY
  5
C
330
0
100
AcDbDictionary
281
     1
  3
ACAD_CIP_PREVIOUS_PRODUCT_INFO
350
216
  3
ACAD_COLOR
350
6B
  3
ACAD_DETAILVIEWSTYLE
350
21B
  3
ACAD_GROUP
350
D
  3
ACAD_LAYOUT
350
1A
  3
ACAD_MATERIAL
350
6A
  3
ACAD_MLEADERSTYLE
350
12D
  3
ACAD_MLINESTYLE
350
17
  3
ACAD_PLOTSETTINGS
350
19
  3
ACAD_PLOTSTYLENAME
350
E
  3
ACAD_SCALELIST
350
10C
  3
ACAD_SECTIONVIEWSTYLE
350
219
  3
ACAD_TABLESTYLE
350
7E
  3
ACAD_VISUALSTYLE
350
EF
  3
ACDB_RECOMPOSE_DATA
350
3BA
  3
AcDbVariableDictionary
350
5E
  3
AcDsDecomposeData
350
3C0
  0
DICTIONARY
  5
1FF
330
2
100
AcDbDictionary
280
     1
281
     1
  3
ACAD_LAYERSTATES
360
200
  0
DICTIONARY
  5
13C
330
10
100
AcDbDictionary
280
     1
281
     1
  0
DICTIONARY
  5
1CE
330
1F
100
AcDbDictionary
280
     1
281
     1
  0
XRECORD
  5
216
102
{ACAD_REACTORS
330
C
102
}
330
C
100
AcDbXrecord
280
     1
300
ACD
300
2022
300

  0
DICTIONARY
  5
6B
102
{ACAD_REACTORS
330
C
102
}
330
C
100
AcDbDictionary
281
     1
  0
DICTIONARY
  5
21B
102
{ACAD_REACTORS
330
C
102
}
330
C
100
AcDbDictionary
281
     1
  3
Metric50
350
21C
  0
DICTIONARY
  5
D
102
{ACAD_REACTORS
330
C
102
}
330
C
100
AcDbDictionary
281
     1
  0
DICTIONARY
  5
1A
102
{ACAD_REACTORS
330
C
102
}
330
C
100
AcDbDictionary
281
     1
  3
Layout1
350
D3
  3
Layout2
350
D7
  3
Model
350
22
  0
DICTIONARY
  5
6A
102
{ACAD_REACTORS
330
C
102
}
330
C
100
AcDbDictionary
281
     1
  3
ByBlock
350
ED
  3
ByLayer
350
EC
  3
Global
350
EE
  0
DICTIONARY
  5
12D
102
{ACAD_REACTORS
330
C
102
}
330
C
100
AcDbDictionary
281
     1
  3
Annotative
350
13B
  3
Standard
350
12E
  0
DICTIONARY
  5
17
102
{ACAD_REACTORS
330
C
102
}
330
C
100
AcDbDictionary
281
     1
  3
Standard
350
18
  0
DICTIONARY
  5
19
102
{ACAD_REACTORS
330
C
102
}
330
C
100
AcDbDictionary
281
     1
  0
ACDBDICTIONARYWDFLT
  5
E
102
{ACAD_REACTORS
330
C
102
}
330
C
100
AcDbDictionary
281
     1
  3
Normal
350
F
100
AcDbDictionaryWithDefault
340
F
  0
DICTIONARY
  5
10C
102
{ACAD_REACTORS
330
C
102
}
330
C
100
AcDbDictionary
281
     1
  3
A0
350
10D
  3
A1
350
1BE
  3
A2
350
1BF
  3
A3
350
1C0
  3
A4
350
1C1
  3
A5
350
1C2
  3
A6
350
1C3
  3
A7
350
1C4
  3
A8
350
1C5
  3
A9
350
1C6
  3
B0
350
1C7
  3
B1
350
1C8
  3
B2
350
1C9
  3
B3
350
1CA
  3
B4
350
1CB
  3
B5
350
1CC
  3
B6
350
1CD
  0
DICTIONARY
  5
219
102
{ACAD_REACTORS
330
C
102
}
330
C
100
AcDbDictionary
281
     1
  3
Metric50
350
21A
  0
DICTIONARY
  5
7E
102
{ACAD_REACTORS
330
C
102
}
330
C
100
AcDbDictionary
281
     1
  3
Standard
350
7F
  0
DICTIONARY
  5
EF
102
{ACAD_REACTORS
330
C
102
}
330
C
100
AcDbDictionary
281
     1
  3
2dWireframe
350
F5
  3
Basic
350
F4
  3
Brighten
350
FB
  3
ColorChange
350
FF
  3
Conceptual
350
F8
  3
Dim
350
FA
  3
EdgeColorOff
350
1E6
  3
Facepattern
350
FE
  3
Flat
350
F0
  3
FlatWithEdges
350
F1
  3
Gouraud
350
F2
  3
GouraudWithEdges
350
F3
  3
Hidden
350
F7
  3
JitterOff
350
1E4
  3
Linepattern
350
FD
  3
OverhangOff
350
1E5
  3
Realistic
350
F9
  3
Shaded
350
1F3
  3
Shaded with edges
350
1F2
  3
Shades of Gray
350
1EF
  3
Sketchy
350
1F0
  3
Thicken
350
FC
  3
Wireframe
350
F6
  3
X-Ray
350
1F1
  0
XRECORD
  5
3BA
102
{ACAD_REACTORS
330
C
102
}
330
C
100
AcDbXrecord
280
     1
 90
        1
330
7F
  0
DICTIONARY
  5
5E
102
{ACAD_REACTORS
330
C
102
}
330
C
100
AcDbDictionary
281
     1
  3
CANNOSCALE
350
146
  3
CENTEREXE
350
259
  3
CENTERLTYPEFILE
350
25A
  3
CMLEADERSTYLE
350
145
  3
CTABLESTYLE
350
84
  3
CVIEWDETAILSTYLE
350
227
  3
CVIEWSECTIONSTYLE
350
228
  3
DIMASSOC
350
5F
  3
HIDETEXT
350
63
  3
LAYEREVAL
350
1AE
  3
LAYERNOTIFY
350
1AF
  0
DICTIONARY
  5
3C0
102
{ACAD_REACTORS
330
C
102
}
330
C
100
AcDbDictionary
281
     1
  3
AcDsRecords
350
3C2
  3
AcDsSchemas
350
3C1
1001
ACAD
1070
     2
  0
DICTIONARY
  5
200
102
{ACAD_REACTORS
330
1FF
102
}
330
1FF
100
AcDbDictionary
281
     1
  0
ACDBDETAILVIEWSTYLE
  5
21C
102
{ACAD_XDICTIONARY
360
3C5
102
}
102
{ACAD_REACTORS
330
21B
102
}
330
21B
100
AcDbModelDocViewStyle
 70
     0
  3
Metric50
290
     0
100
AcDbDetailViewStyle
 70
     0
 71
     0
 90
        3
 71
     1
340
11
 62
   256
 40
5.0
340
0
 62
   256
 40
5.0
300

 40
0.0
280
     1
 71
     2
340
16
 90
       25
 62
   256
 71
     3
340
11
 62
   256
 40
5.0
 90
        0
 40
15.0
 90
        1
300
%<\AcVar ViewDetailId>% (%<\AcVar ViewScale \f "%sn">%)
 71
     4
340
16
 90
       25
 62
   256
340
16
 90
       25
 62
   256
280
     0
  0
LAYOUT
  5
D3
102
{ACAD_REACTORS
330
1A
102
}
330
1A
100
AcDbPlotSettings
  1

  2
C:\Documents and Settings\basas\Application Data\Autodesk\AutoCAD 2005\R16.1\enu\plotters\Default Windows System Printer.pc3
  4

  6

 40
0.0
 41
0.0
 42
0.0
 43
0.0
 44
0.0
 45
0.0
 46
0.0
 47
0.0
 48
0.0
 49
0.0
140
0.0
141
0.0
142
1.0
143
1.0
 70
   688
 72
     0
 73
     0
 74
     5
  7

 75
    16
147
1.0
 76
     0
 77
     2
 78
   300
148
0.0
149
0.0
100
AcDbLayout
  1
Layout1
 70
     1
 71
     1
 10
0.0
 20
0.0
 11
12.0
 21
9.0
 12
0.0
 22
0.0
 32
0.0
 14
0.0
 24
0.0
 34
0.0
 15
0.0
 25
0.0
 35
0.0
146
0.0
 13
0.0
 23
0.0
 33
0.0
 16
1.0
 26
0.0
 36
0.0
 17
0.0
 27
1.0
 37
0.0
 76
     0
330
D2
  0
LAYOUT
  5
D7
102
{ACAD_REACTORS
330
1A
102
}
330
1A
100
AcDbPlotSettings
  1

  2
C:\Documents and Settings\basas\Application Data\Autodesk\AutoCAD 2005\R16.1\enu\plotters\Default Windows System Printer.pc3
  4

  6

 40
0.0
 41
0.0
 42
0.0
 43
0.0
 44
0.0
 45
0.0
 46
0.0
 47
0.0
 48
0.0
 49
0.0
140
0.0
141
0.0
142
1.0
143
1.0
 70
   688
 72
     0
 73
     0
 74
     5
  7

 75
    16
147
1.0
 76
     0
 77
     2
 78
   300
148
0.0
149
0.0
100
AcDbLayout
  1
Layout2
 70
     1
 71
     2
 10
0.0
 20
0.0
 11
12.0
 21
9.0
 12
0.0
 22
0.0
 32
0.0
 14
0.0
 24
0.0
 34
0.0
 15
0.0
 25
0.0
 35
0.0
146
0.0
 13
0.0
 23
0.0
 33
0.0
 16
1.0
 26
0.0
 36
0.0
 17
0.0
 27
1.0
 37
0.0
 76
     0
330
D6
  0
LAYOUT
  5
22
102
{ACAD_XDICTIONARY
360
205
102
}
102
{ACAD_REACTORS
330
1A
102
}
330
1A
100
AcDbPlotSettings
  1

  2
none_device
  4
ISO_A4_(210.00_x_297.00_MM)
  6

 40
7.5
 41
20.0
 42
7.5
 43
20.0
 44
210.0
 45
297.0
 46
11.54999923706054
 47
-13.65000009536743
 48
0.0
 49
0.0
140
0.0
141
0.0
142
1.0
143
8.704084754739808
 70
 11952
 72
     1
 73
     0
 74
     0
  7

 75
     0
147
0.1148885871608098
 76
     0
 77
     2
 78
   300
148
0.0
149
0.0
100
AcDbLayout
  1
Model
 70
     1
 71
     0
 10
0.0
 20
0.0
 11
12.0
 21
9.0
 12
0.0
 22
0.0
 32
0.0
 14
0.0
 24
0.0
 34
0.0
 15
0.0
 25
0.0
 35
0.0
146
0.0
 13
0.0
 23
0.0
 33
0.0
 16
1.0
 26
0.0
 36
0.0
 17
0.0
 27
1.0
 37
0.0
 76
     0
330
1F
331
EA
1001
ACAD_PSEXT
1000
None
1000
None
1000
Not applicable
1000
The layout will not be plotted unless a new plotter configuration name is selected.
1070
     0
  0
MATERIAL
  5
ED
102
{ACAD_XDICTIONARY
360
1F9
102
}
102
{ACAD_REACTORS
330
6A
102
}
330
6A
100
AcDbMaterial
  1
ByBlock
 94
       63
  0
MATERIAL
  5
EC
102
{ACAD_XDICTIONARY
360
1F7
102
}
102
{ACAD_REACTORS
330
6A
102
}
330
6A
100
AcDbMaterial
  1
ByLayer
 94
       63
  0
MATERIAL
  5
EE
102
{ACAD_XDICTIONARY
360
173
102
}
102
{ACAD_REACTORS
330
6A
102
}
330
6A
100
AcDbMaterial
  1
Global
 43
0.0007999999797903
 43
0.0
 43
0.0
 43
0.0
 43
0.0
 43
0.0007999999797903
 43
0.0
 43
0.0
 43
0.0
 43
0.0
 43
1.0
 43
0.0
 43
0.0
 43
0.0
 43
0.0
 43
1.0
 49
0.0007999999797903
 49
0.0
 49
0.0
 49
0.0
 49
0.0
 49
0.0007999999797903
 49
0.0
 49
0.0
 49
0.0
 49
0.0
 49
1.0
 49
0.0
 49
0.0
 49
0.0
 49
0.0
 49
1.0
142
0.0007999999797903
142
0.0
142
0.0
142
0.0
142
0.0
142
0.0007999999797903
142
0.0
142
0.0
142
0.0
142
0.0
142
1.0
142
0.0
142
0.0
142
0.0
142
0.0
142
1.0
144
0.0007999999797903
144
0.0
144
0.0
144
0.0
144
0.0
144
0.0007999999797903
144
0.0
144
0.0
144
0.0
144
0.0
144
1.0
144
0.0
144
0.0
144
0.0
144
0.0
144
1.0
 94
       63
1001
ACAD
1070
    -1
1070
     3
1070
     0
1000

1071
        0
1070
     0
  0
MLEADERSTYLE
  5
13B
102
{ACAD_REACTORS
330
12D
102
}
330
12D
100
AcDbMLeaderStyle
179
     2
170
     2
171
     1
172
     0
 90
        2
 40
0.0
 41
0.0
173
     1
 91
-1056964608
340
14
 92
       -2
290
     1
 42
2.0
291
     1
 43
8.0
  3
Standard
 44
4.0
300

342
11
174
     1
178
     1
175
     1
176
     0
 93
-1056964608
 45
4.0
292
     0
297
     0
 46
4.0
 94
-1056964608
 47
1.0
 49
1.0
140
1.0
293
     1
141
0.0
294
     1
177
     0
142
1.0
295
     0
296
     1
143
3.75
271
     0
272
     9
273
     9
298
     0
  0
MLEADERSTYLE
  5
12E
102
{ACAD_REACTORS
330
12D
102
}
330
12D
100
AcDbMLeaderStyle
179
     2
170
     2
171
     1
172
     0
 90
        2
 40
0.0
 41
0.0
173
     1
 91
-1056964608
340
14
 92
       -2
290
     1
 42
2.0
291
     1
 43
8.0
  3
Standard
 44
4.0
300

342
11
174
     1
178
     1
175
     1
176
     0
 93
-1056964608
 45
4.0
292
     0
297
     0
 46
4.0
 94
-1056964608
 47
1.0
 49
1.0
140
1.0
293
     1
141
0.0
294
     1
177
     0
142
1.0
295
     0
296
     0
143
3.75
271
     0
272
     9
273
     9
298
     0
  0
MLINESTYLE
  5
18
102
{ACAD_REACTORS
330
17
102
}
330
17
100
AcDbMlineStyle
  2
STANDARD
 70
     0
  3

 62
   256
 51
90.0
 52
90.0
 71
     2
 49
0.5
 62
   256
  6
BYLAYER
 49
-0.5
 62
   256
  6
BYLAYER
  0
ACDBPLACEHOLDER
  5
F
102
{ACAD_REACTORS
330
E
102
}
330
E
  0
SCALE
  5
10D
102
{ACAD_REACTORS
330
10C
102
}
330
10C
100
AcDbScale
 70
     0
300
1:1
140
1.0
141
1.0
290
     1
  0
SCALE
  5
1BE
102
{ACAD_REACTORS
330
10C
102
}
330
10C
100
AcDbScale
 70
     0
300
1:2
140
1.0
141
2.0
290
     0
  0
SCALE
  5
1BF
102
{ACAD_REACTORS
330
10C
102
}
330
10C
100
AcDbScale
 70
     0
300
1:4
140
1.0
141
4.0
290
     0
  0
SCALE
  5
1C0
102
{ACAD_REACTORS
330
10C
102
}
330
10C
100
AcDbScale
 70
     0
300
1:5
140
1.0
141
5.0
290
     0
  0
SCALE
  5
1C1
102
{ACAD_REACTORS
330
10C
102
}
330
10C
100
AcDbScale
 70
     0
300
1:8
140
1.0
141
8.0
290
     0
  0
SCALE
  5
1C2
102
{ACAD_REACTORS
330
10C
102
}
330
10C
100
AcDbScale
 70
     0
300
1:10
140
1.0
141
10.0
290
     0
  0
SCALE
  5
1C3
102
{ACAD_REACTORS
330
10C
102
}
330
10C
100
AcDbScale
 70
     0
300
1:16
140
1.0
141
16.0
290
     0
  0
SCALE
  5
1C4
102
{ACAD_REACTORS
330
10C
102
}
330
10C
100
AcDbScale
 70
     0
300
1:20
140
1.0
141
20.0
290
     0
  0
SCALE
  5
1C5
102
{ACAD_REACTORS
330
10C
102
}
330
10C
100
AcDbScale
 70
     0
300
1:30
140
1.0
141
30.0
290
     0
  0
SCALE
  5
1C6
102
{ACAD_REACTORS
330
10C
102
}
330
10C
100
AcDbScale
 70
     0
300
1:40
140
1.0
141
40.0
290
     0
  0
SCALE
  5
1C7
102
{ACAD_REACTORS
330
10C
102
}
330
10C
100
AcDbScale
 70
     0
300
1:50
140
1.0
141
50.0
290
     0
  0
SCALE
  5
1C8
102
{ACAD_REACTORS
330
10C
102
}
330
10C
100
AcDbScale
 70
     0
300
1:100
140
1.0
141
100.0
290
     0
  0
SCALE
  5
1C9
102
{ACAD_REACTORS
330
10C
102
}
330
10C
100
AcDbScale
 70
     0
300
2:1
140
2.0
141
1.0
290
     0
  0
SCALE
  5
1CA
102
{ACAD_REACTORS
330
10C
102
}
330
10C
100
AcDbScale
 70
     0
300
4:1
140
4.0
141
1.0
290
     0
  0
SCALE
  5
1CB
102
{ACAD_REACTORS
330
10C
102
}
330
10C
100
AcDbScale
 70
     0
300
8:1
140
8.0
141
1.0
290
     0
  0
SCALE
  5
1CC
102
{ACAD_REACTORS
330
10C
102
}
330
10C
100
AcDbScale
 70
     0
300
10:1
140
10.0
141
1.0
290
     0
  0
SCALE
  5
1CD
102
{ACAD_REACTORS
330
10C
102
}
330
10C
100
AcDbScale
 70
     0
300
100:1
140
100.0
141
1.0
290
     0
  0
ACDBSECTIONVIEWSTYLE
  5
21A
102
{ACAD_XDICTIONARY
360
3C3
102
}
102
{ACAD_REACTORS
330
219
102
}
330
219
100
AcDbModelDocViewStyle
 70
     0
  3
Metric50
290
     0
100
AcDbSectionViewStyle
 70
     0
 71
     0
 90
      102
 71
     1
340
11
 62
   256
 40
5.0
340
0
340
0
 62
   256
 40
5.0
300
I, O, Q, S, X, Z
 40
10.0
 90
        0
 40
2.5
 90
        0
 71
     2
340
16
 90
       25
 62
   256
340
16
 90
       50
 62
   256
 40
5.0
 40
2.5
 40
5.0
 71
     3
340
11
 62
   256
 40
5.0
 90
        0
 40
15.0
 90
        1
300
%<\AcVar ViewSectionStartId>%-%<\AcVar ViewSectionEndId>% (%<\AcVar ViewScale \f "%sn">%)
 71
     4
 62
   256
 62
   257
300
ANSI31
 40
1.0
 90
        0
290
     0
290
     0
 90
        6
 40
0.0
 40
1.570796326794896
 40
0.2617993877991494
 40
1.308996938995747
 40
-0.2617993877991494
 40
1.832595714594046
  0
TABLESTYLE
  5
7F
102
{ACAD_XDICTIONARY
360
162
102
}
102
{ACAD_REACTORS
330
7E
102
}
330
7E
100
AcDbTableStyle
280
     0
  3
Standard
 70
     0
 71
     0
 40
1.5
 41
1.5
280
     0
281
     0
  7
Standard
140
4.5
170
     2
 62
     0
 63
     7
283
     0
 90
      512
 91
        0
  1

274
    -2
284
     1
 64
     0
275
    -2
285
     1
 65
     0
276
    -2
286
     1
 66
     0
277
    -2
287
     1
 67
     0
278
    -2
288
     1
 68
     0
279
    -2
289
     1
 69
     0
  7
Standard
140
6.0
170
     5
 62
     0
 63
     7
283
     0
 90
      512
 91
        0
  1

274
    -2
284
     1
 64
     0
275
    -2
285
     1
 65
     0
276
    -2
286
     1
 66
     0
277
    -2
287
     1
 67
     0
278
    -2
288
     1
 68
     0
279
    -2
289
     1
 69
     0
  7
Standard
140
4.5
170
     5
 62
     0
 63
     7
283
     0
 90
      512
 91
        0
  1

274
    -2
284
     1
 64
     0
275
    -2
285
     1
 65
     0
276
    -2
286
     1
 66
     0
277
    -2
287
     1
 67
     0
278
    -2
288
     1
 68
     0
279
    -2
289
     1
 69
     0
  0
VISUALSTYLE
  5
F5
102
{ACAD_REACTORS
330
EF
102
}
330
EF
100
AcDbVisualStyle
  2
2dWireframe
 70
     4
177
     3
291
     0
 70
    58
 90
        0
176
     1
 90
        2
176
     1
 90
        1
176
     1
 90
        0
176
     1
 40
0.6
176
     1
 40
30.0
176
     1
 62
     7
420
 16777215
176
     1
 90
        1
176
     1
 90
        4
176
     1
 62
     7
176
     1
 62
   257
176
     1
 90
        1
176
     1
 90
        1
176
     1
 40
1.0
176
     1
 90
        0
176
     1
 62
   257
176
     1
 40
1.0
176
     1
 90
        1
176
     1
 90
        6
176
     1
 90
        2
176
     1
 62
     7
176
     1
 90
        5
176
     1
 90
        0
176
     1
 90
        0
176
     1
290
     0
176
     1
 90
        1
176
     1
 40
0.0
176
     1
 90
        0
176
     1
290
     1
176
     1
290
     1
176
     1
290
     0
176
     1
290
     0
176
     1
290
     0
176
     1
290
     0
176
     1
290
     0
176
     1
290
     0
176
     1
290
     0
176
     1
 90
       50
176
     1
 40
0.0
176
     1
 40
1.0
176
     1
 90
        0
176
     1
 62
    18
420
        0
176
     1
 90
       50
176
     1
 90
        3
176
     1
 62
     5
420
      255
176
     1
290
     0
176
     1
 90
       50
176
     1
 90
       50
176
     1
 90
       50
176
     1
290
     0
176
     1
 90
       50
176
     1
 62
   256
176
     0
 40
1.0
176
     0
 90
        2
176
     1
  1
strokes_ogs.tif
176
     1
290
     0
176
     1
 40
1.0
176
     1
 40
1.0
176
     1
1001
ACAD
1000
AcDbSavedByObjectVersion
1070
     0
  0
VISUALSTYLE
  5
F4
102
{ACAD_REACTORS
330
EF
102
}
330
EF
100
AcDbVisualStyle
  2
Basic
 70
     7
177
     3
291
     1
 70
    58
 90
        1
176
     1
 90
        0
176
     1
 90
        1
176
     1
 90
        0
176
     1
 40
0.6
176
     1
 40
30.0
176
     1
 62
     7
420
 16777215
176
     1
 90
        0
176
     1
 90
        4
176
     1
 62
     7
176
     1
 62
   257
176
     1
 90
        1
176
     1
 90
        1
176
     1
 40
1.0
176
     1
 90
        8
176
     1
 62
     7
176
     1
 40
1.0
176
     1
 90
        1
176
     1
 90
        6
176
     1
 90
        2
176
     1
 62
     7
176
     1
 90
        5
176
     1
 90
        0
176
     1
 90
        0
176
     1
290
     0
176
     1
 90
        1
176
     1
 40
0.0
176
     1
 90
        0
176
     1
290
     0
176
     1
290
     1
176
     1
290
     1
176
     1
290
     0
176
     1
290
     0
176
     1
290
     0
176
     1
290
     0
176
     1
290
     0
176
     1
290
     0
176
     1
 90
       50
176
     1
 40
0.0
176
     1
 40
1.0
176
     1
 90
        0
176
     1
 62
    18
420
        0
176
     1
 90
       50
176
     1
 90
        3
176
     1
 62
     5
420
      255
176
     1
290
     0
176
     1
 90
       50
176
     1
 90
       50
176
     1
 90
       50
176
     1
290
     0
176
     1
 90
       50
176
     1
 62
   256
176
     0
 40
1.0
176
     0
 90
        2
176
     1
  1
strokes_ogs.tif
176
     1
290
     0
176
     1
 40
1.0
176
     1
 40
1.0
176
     1
1001
ACAD
1000
AcDbSavedByObjectVersion
1070
     0
  0
VISUALSTYLE
  5
FB
102
{ACAD_REACTORS
330
EF
102
}
330
EF
100
AcDbVisualStyle
  2
Brighten
 70
    12
177
     3
291
     1
 70
    58
 90
        2
176
     1
 90
        2
176
     1
 90
        1
176
     1
 90
        0
176
     1
 40
0.6
176
     1
 40
30.0
176
     1
 62
     7
420
 16777215
176
     1
 90
        1
176
     1
 90
        4
176
     1
 62
     7
176
     1
 62
   257
176
     1
 90
        1
176
     1
 90
        1
176
     1
 40
1.0
176
     1
 90
        8
176
     1
 62
     7
176
     1
 40
1.0
176
     1
 90
        1
176
     1
 90
        6
176
     1
 90
        2
176
     1
 62
     7
176
     1
 90
        5
176
     1
 90
        0
176
     1
 90
        0
176
     1
290
     0
176
     1
 90
        1
176
     1
 40
50.0
176
     1
 90
        0
176
     1
290
     0
176
     1
290
     1
176
     1
290
     1
176
     1
290
     0
176
     1
290
     0
176
     1
290
     0
176
     1
290
     0
176
     1
290
     0
176
     1
290
     0
176
     1
 90
       50
176
     1
 40
0.0
176
     1
 40
1.0
176
     1
 90
        0
176
     1
 62
    18
420
        0
176
     1
 90
       50
176
     1
 90
        3
176
     1
 62
     5
420
      255
176
     1
290
     0
176
     1
 90
       50
176
     1
 90
       50
176
     1
 90
       50
176
     1
290
     0
176
     1
 90
       50
176
     1
 62
   256
176
     0
 40
1.0
176
     0
 90
        2
176
     1
  1
strokes_ogs.tif
176
     1
290
     0
176
     1
 40
1.0
176
     1
 40
1.0
176
     1
1001
ACAD
1000
AcDbSavedByObjectVersion
1070
     0
  0
VISUALSTYLE
  5
FF
102
{ACAD_REACTORS
330
EF
102
}
330
EF
100
AcDbVisualStyle
  2
ColorChange
 70
    16
177
     3
291
     1
 70
    58
 90
        2
176
     1
 90
        2
176
     1
 90
        3
176
     1
 90
        0
176
     1
 40
0.6
176
     1
 40
30.0
176
     1
 62
     8
420
  8421504
176
     1
 90
        1
176
     1
 90
        4
176
     1
 62
     7
176
     1
 62
   257
176
     1
 90
        1
176
     1
 90
        1
176
     1
 40
1.0
176
     1
 90
        8
176
     1
 62
     8
420
  8421504
176
     1
 40
1.0
176
     1
 90
        1
176
     1
 90
        6
176
     1
 90
        2
176
     1
 62
     7
176
     1
 90
        5
176
     1
 90
        0
176
     1
 90
        0
176
     1
290
     0
176
     1
 90
        1
176
     1
 40
0.0
176
     1
 90
        0
176
     1
290
     0
176
     1
290
     1
176
     1
290
     1
176
     1
290
     0
176
     1
290
     0
176
     1
290
     0
176
     1
290
     0
176
     1
290
     0
176
     1
290
     0
176
     1
 90
       50
176
     1
 40
0.0
176
     1
 40
1.0
176
     1
 90
        0
176
     1
 62
    18
420
        0
176
     1
 90
       50
176
     1
 90
        3
176
     1
 62
     5
420
      255
176
     1
290
     0
176
     1
 90
       50
176
     1
 90
       50
176
     1
 90
       50
176
     1
290
     0
176
     1
 90
       50
176
     1
 62
   256
176
     0
 40
1.0
176
     0
 90
        2
176
     1
  1
strokes_ogs.tif
176
     1
290
     0
176
     1
 40
1.0
176
     1
 40
1.0
176
     1
1001
ACAD
1000
AcDbSavedByObjectVersion
1070
     0
  0
VISUALSTYLE
  5
F8
102
{ACAD_REACTORS
330
EF
102
}
330
EF
100
AcDbVisualStyle
  2
Conceptual
 70
     9
177
     3
291
     0
 70
    58
 90
        3
176
     1
 90
        2
176
     1
 90
        1
176
     1
 90
        0
176
     1
 40
0.6
176
     1
 40
30.0
176
     1
 62
     7
420
 16777215
176
     1
 90
        2
176
     1
 90
        2
176
     1
 62
     7
176
     1
 62
   257
176
     1
 90
        1
176
     1
 90
        1
176
     1
 40
40.0
176
     1
 90
        8
176
     1
 62
     7
176
     1
 40
1.0
176
     1
 90
        1
176
     1
 90
        6
176
     1
 90
        2
176
     1
 62
     7
176
     1
 90
        3
176
     1
 90
        0
176
     1
 90
        0
176
     1
290
     0
176
     1
 90
        1
176
     1
 40
0.0
176
     1
 90
        0
176
     1
290
     0
176
     1
290
     1
176
     1
290
     1
176
     1
290
     0
176
     1
290
     0
176
     1
290
     0
176
     1
290
     0
176
     1
290
     0
176
     1
290
     0
176
     1
 90
       50
176
     1
 40
0.0
176
     1
 40
1.0
176
     1
 90
        0
176
     1
 62
    18
420
        0
176
     1
 90
       50
176
     1
 90
        3
176
     1
 62
     5
420
      255
176
     1
290
     0
176
     1
 90
       50
176
     1
 90
       50
176
     1
 90
       50
176
     1
290
     0
176
     1
 90
       50
176
     1
 62
   256
176
     0
 40
1.0
176
     0
 90
        2
176
     1
  1
strokes_ogs.tif
176
     1
290
     0
176
     1
 40
1.0
176
     1
 40
1.0
176
     1
1001
ACAD
1000
AcDbSavedByObjectVersion
1070
     0
  0
VISUALSTYLE
  5
FA
102
{ACAD_REACTORS
330
EF
102
}
330
EF
100
AcDbVisualStyle
  2
Dim
 70
    11
177
     3
291
     1
 70
    58
 90
        2
176
     1
 90
        2
176
     1
 90
        1
176
     1
 90
        0
176
     1
 40
0.6
176
     1
 40
30.0
176
     1
 62
     7
420
 16777215
176
     1
 90
        1
176
     1
 90
        4
176
     1
 62
     7
176
     1
 62
   257
176
     1
 90
        1
176
     1
 90
        1
176
     1
 40
1.0
176
     1
 90
        8
176
     1
 62
     7
176
     1
 40
1.0
176
     1
 90
        1
176
     1
 90
        6
176
     1
 90
        2
176
     1
 62
     7
176
     1
 90
        5
176
     1
 90
        0
176
     1
 90
        0
176
     1
290
     0
176
     1
 90
        1
176
     1
 40
-50.0
176
     1
 90
        0
176
     1
290
     0
176
     1
290
     1
176
     1
290
     1
176
     1
290
     0
176
     1
290
     0
176
     1
290
     0
176
     1
290
     0
176
     1
290
     0
176
     1
290
     0
176
     1
 90
       50
176
     1
 40
0.0
176
     1
 40
1.0
176
     1
 90
        0
176
     1
 62
    18
420
        0
176
     1
 90
       50
176
     1
 90
        3
176
     1
 62
     5
420
      255
176
     1
290
     0
176
     1
 90
       50
176
     1
 90
       50
176
     1
 90
       50
176
     1
290
     0
176
     1
 90
       50
176
     1
 62
   256
176
     0
 40
1.0
176
     0
 90
        2
176
     1
  1
strokes_ogs.tif
176
     1
290
     0
176
     1
 40
1.0
176
     1
 40
1.0
176
     1
1001
ACAD
1000
AcDbSavedByObjectVersion
1070
     0
  0
VISUALSTYLE
  5
1E6
102
{ACAD_REACTORS
330
EF
102
}
330
EF
100
AcDbVisualStyle
  2
EdgeColorOff
 70
    22
177
     3
291
     1
 70
    58
 90
        2
176
     0
 90
        2
176
     0
 90
        0
176
     0
 90
        0
176
     0
 40
0.6
176
     0
 40
30.0
176
     0
 62
     7
420
 16777215
176
     0
 90
        1
176
     0
 90
        4
176
     0
 62
     7
176
     0
 62
   257
176
     0
 90
        1
176
     0
 90
        1
176
     0
 40
1.0
176
     0
 90
        8
176
     2
 62
     7
176
     0
 40
1.0
176
     0
 90
        1
176
     0
 90
        6
176
     0
 90
        2
176
     0
 62
     7
176
     0
 90
        5
176
     0
 90
        0
176
     0
 90
        0
176
     0
290
     0
176
     0
 90
        1
176
     0
 40
0.0
176
     0
 90
        0
176
     0
290
     0
176
     1
290
     1
176
     1
290
     1
176
     1
290
     0
176
     1
290
     0
176
     1
290
     0
176
     1
290
     0
176
     1
290
     0
176
     1
290
     0
176
     1
 90
       50
176
     1
 40
0.0
176
     1
 40
1.0
176
     1
 90
        0
176
     1
 62
    18
420
        0
176
     1
 90
       50
176
     1
 90
        3
176
     1
 62
     5
420
      255
176
     1
290
     0
176
     1
 90
       50
176
     1
 90
       50
176
     1
 90
       50
176
     1
290
     0
176
     1
 90
       50
176
     1
 62
   256
176
     0
 40
1.0
176
     0
 90
        2
176
     1
  1
strokes_ogs.tif
176
     1
290
     0
176
     1
 40
1.0
176
     1
 40
1.0
176
     1
1001
ACAD
1000
AcDbSavedByObjectVersion
1070
     0
  0
VISUALSTYLE
  5
FE
102
{ACAD_REACTORS
330
EF
102
}
330
EF
100
AcDbVisualStyle
  2
Facepattern
 70
    15
177
     3
291
     1
 70
    58
 90
        2
176
     1
 90
        2
176
     1
 90
        1
176
     1
 90
        0
176
     1
 40
0.6
176
     1
 40
30.0
176
     1
 62
     7
420
 16777215
176
     1
 90
        1
176
     1
 90
        4
176
     1
 62
     7
176
     1
 62
   257
176
     1
 90
        1
176
     1
 90
        1
176
     1
 40
1.0
176
     1
 90
        8
176
     1
 62
     7
176
     1
 40
1.0
176
     1
 90
        1
176
     1
 90
        6
176
     1
 90
        2
176
     1
 62
     7
176
     1
 90
        5
176
     1
 90
        0
176
     1
 90
        0
176
     1
290
     0
176
     1
 90
        1
176
     1
 40
0.0
176
     1
 90
        0
176
     1
290
     0
176
     1
290
     1
176
     1
290
     1
176
     1
290
     0
176
     1
290
     0
176
     1
290
     0
176
     1
290
     0
176
     1
290
     0
176
     1
290
     0
176
     1
 90
       50
176
     1
 40
0.0
176
     1
 40
1.0
176
     1
 90
        0
176
     1
 62
    18
420
        0
176
     1
 90
       50
176
     1
 90
        3
176
     1
 62
     5
420
      255
176
     1
290
     0
176
     1
 90
       50
176
     1
 90
       50
176
     1
 90
       50
176
     1
290
     0
176
     1
 90
       50
176
     1
 62
   256
176
     0
 40
1.0
176
     0
 90
        2
176
     1
  1
strokes_ogs.tif
176
     1
290
     0
176
     1
 40
1.0
176
     1
 40
1.0
176
     1
1001
ACAD
1000
AcDbSavedByObjectVersion
1070
     0
  0
VISUALSTYLE
  5
F0
102
{ACAD_REACTORS
330
EF
102
}
330
EF
100
AcDbVisualStyle
  2
Flat
 70
     0
177
     3
291
     1
 70
    58
 90
        2
176
     1
 90
        1
176
     1
 90
        1
176
     1
 90
        2
176
     1
 40
0.6
176
     1
 40
30.0
176
     1
 62
     7
420
 16777215
176
     1
 90
        0
176
     1
 90
        0
176
     1
 62
     7
176
     1
 62
   257
176
     1
 90
        1
176
     1
 90
        1
176
     1
 40
1.0
176
     1
 90
        8
176
     1
 62
     7
176
     1
 40
1.0
176
     1
 90
        1
176
     1
 90
        6
176
     1
 90
        2
176
     1
 62
     7
176
     1
 90
        5
176
     1
 90
        0
176
     1
 90
        0
176
     1
290
     0
176
     1
 90
       13
176
     1
 40
0.0
176
     1
 90
        0
176
     1
290
     0
176
     1
290
     1
176
     1
290
     1
176
     1
290
     0
176
     1
290
     0
176
     1
290
     0
176
     1
290
     0
176
     1
290
     0
176
     1
290
     0
176
     1
 90
       50
176
     1
 40
0.0
176
     1
 40
1.0
176
     1
 90
        0
176
     1
 62
    18
420
        0
176
     1
 90
       50
176
     1
 90
        3
176
     1
 62
     5
420
      255
176
     1
290
     0
176
     1
 90
       50
176
     1
 90
       50
176
     1
 90
       50
176
     1
290
     0
176
     1
 90
       50
176
     1
 62
   256
176
     0
 40
1.0
176
     0
 90
        2
176
     1
  1
strokes_ogs.tif
176
     1
290
     0
176
     1
 40
1.0
176
     1
 40
1.0
176
     1
1001
ACAD
1000
AcDbSavedByObjectVersion
1070
     0
  0
VISUALSTYLE
  5
F1
102
{ACAD_REACTORS
330
EF
102
}
330
EF
100
AcDbVisualStyle
  2
FlatWithEdges
 70
     1
177
     3
291
     1
 70
    58
 90
        2
176
     1
 90
        1
176
     1
 90
        1
176
     1
 90
        2
176
     1
 40
0.6
176
     1
 40
30.0
176
     1
 62
     7
420
 16777215
176
     1
 90
        1
176
     1
 90
        0
176
     1
 62
     7
176
     1
 62
   257
176
     1
 90
        1
176
     1
 90
        1
176
     1
 40
1.0
176
     1
 90
        0
176
     1
 62
   257
176
     1
 40
1.0
176
     1
 90
        1
176
     1
 90
        6
176
     1
 90
        2
176
     1
 62
     7
176
     1
 90
        5
176
     1
 90
        0
176
     1
 90
        0
176
     1
290
     0
176
     1
 90
       13
176
     1
 40
0.0
176
     1
 90
        0
176
     1
290
     0
176
     1
290
     1
176
     1
290
     1
176
     1
290
     0
176
     1
290
     0
176
     1
290
     0
176
     1
290
     0
176
     1
290
     0
176
     1
290
     0
176
     1
 90
       50
176
     1
 40
0.0
176
     1
 40
1.0
176
     1
 90
        0
176
     1
 62
    18
420
        0
176
     1
 90
       50
176
     1
 90
        3
176
     1
 62
     5
420
      255
176
     1
290
     0
176
     1
 90
       50
176
     1
 90
       50
176
     1
 90
       50
176
     1
290
     0
176
     1
 90
       50
176
     1
 62
   256
176
     0
 40
1.0
176
     0
 90
        2
176
     1
  1
strokes_ogs.tif
176
     1
290
     0
176
     1
 40
1.0
176
     1
 40
1.0
176
     1
1001
ACAD
1000
AcDbSavedByObjectVersion
1070
     0
  0
VISUALSTYLE
  5
F2
102
{ACAD_REACTORS
330
EF
102
}
330
EF
100
AcDbVisualStyle
  2
Gouraud
 70
     2
177
     3
291
     1
 70
    58
 90
        2
176
     1
 90
        2
176
     1
 90
        1
176
     1
 90
        2
176
     1
 40
0.6
176
     1
 40
30.0
176
     1
 62
     7
420
 16777215
176
     1
 90
        0
176
     1
 90
        0
176
     1
 62
     7
176
     1
 62
   257
176
     1
 90
        1
176
     1
 90
        1
176
     1
 40
1.0
176
     1
 90
        0
176
     1
 62
     7
176
     1
 40
1.0
176
     1
 90
        1
176
     1
 90
        6
176
     1
 90
        2
176
     1
 62
     7
176
     1
 90
        5
176
     1
 90
        0
176
     1
 90
        0
176
     1
290
     0
176
     1
 90
       13
176
     1
 40
0.0
176
     1
 90
        0
176
     1
290
     0
176
     1
290
     1
176
     1
290
     1
176
     1
290
     0
176
     1
290
     0
176
     1
290
     0
176
     1
290
     0
176
     1
290
     0
176
     1
290
     0
176
     1
 90
       50
176
     1
 40
0.0
176
     1
 40
1.0
176
     1
 90
        0
176
     1
 62
    18
420
        0
176
     1
 90
       50
176
     1
 90
        3
176
     1
 62
     5
420
      255
176
     1
290
     0
176
     1
 90
       50
176
     1
 90
       50
176
     1
 90
       50
176
     1
290
     0
176
     1
 90
       50
176
     1
 62
   256
176
     0
 40
1.0
176
     0
 90
        2
176
     1
  1
strokes_ogs.tif
176
     1
290
     0
176
     1
 40
1.0
176
     1
 40
1.0
176
     1
1001
ACAD
1000
AcDbSavedByObjectVersion
1070
     0
  0
VISUALSTYLE
  5
F3
102
{ACAD_REACTORS
330
EF
102
}
330
EF
100
AcDbVisualStyle
  2
GouraudWithEdges
 70
     3
177
     3
291
     1
 70
    58
 90
        2
176
     1
 90
        2
176
     1
 90
        1
176
     1
 90
        2
176
     1
 40
0.6
176
     1
 40
30.0
176
     1
 62
     7
420
 16777215
176
     1
 90
        1
176
     1
 90
        0
176
     1
 62
     7
176
     1
 62
   257
176
     1
 90
        1
176
     1
 90
        1
176
     1
 40
1.0
176
     1
 90
        0
176
     1
 62
   257
176
     1
 40
1.0
176
     1
 90
        1
176
     1
 90
        6
176
     1
 90
        2
176
     1
 62
     7
176
     1
 90
        5
176
     1
 90
        0
176
     1
 90
        0
176
     1
290
     0
176
     1
 90
       13
176
     1
 40
0.0
176
     1
 90
        0
176
     1
290
     0
176
     1
290
     1
176
     1
290
     1
176
     1
290
     0
176
     1
290
     0
176
     1
290
     0
176
     1
290
     0
176
     1
290
     0
176
     1
290
     0
176
     1
 90
       50
176
     1
 40
0.0
176
     1
 40
1.0
176
     1
 90
        0
176
     1
 62
    18
420
        0
176
     1
 90
       50
176
     1
 90
        3
176
     1
 62
     5
420
      255
176
     1
290
     0
176
     1
 90
       50
176
     1
 90
       50
176
     1
 90
       50
176
     1
290
     0
176
     1
 90
       50
176
     1
 62
   256
176
     0
 40
1.0
176
     0
 90
        2
176
     1
  1
strokes_ogs.tif
176
     1
290
     0
176
     1
 40
1.0
176
     1
 40
1.0
176
     1
1001
ACAD
1000
AcDbSavedByObjectVersion
1070
     0
  0
VISUALSTYLE
  5
F7
102
{ACAD_REACTORS
330
EF
102
}
330
EF
100
AcDbVisualStyle
  2
Hidden
 70
     6
177
     3
291
     0
 70
    58
 90
        1
176
     1
 90
        2
176
     1
 90
        2
176
     1
 90
        0
176
     1
 40
0.6
176
     1
 40
30.0
176
     1
 62
     7
420
 16777215
176
     1
 90
        2
176
     1
 90
        2
176
     1
 62
     7
176
     1
 62
   257
176
     1
 90
        2
176
     1
 90
        1
176
     1
 40
40.0
176
     1
 90
        0
176
     1
 62
   257
176
     1
 40
1.0
176
     1
 90
        1
176
     1
 90
        6
176
     1
 90
        2
176
     1
 62
     7
176
     1
 90
        3
176
     1
 90
        0
176
     1
 90
        0
176
     1
290
     0
176
     1
 90
        1
176
     1
 40
0.0
176
     1
 90
        0
176
     1
290
     0
176
     1
290
     1
176
     1
290
     1
176
     1
290
     0
176
     1
290
     0
176
     1
290
     0
176
     1
290
     0
176
     1
290
     0
176
     1
290
     0
176
     1
 90
       50
176
     1
 40
0.0
176
     1
 40
1.0
176
     1
 90
        0
176
     1
 62
    18
420
        0
176
     1
 90
       50
176
     1
 90
        3
176
     1
 62
     5
420
      255
176
     1
290
     0
176
     1
 90
       50
176
     1
 90
       50
176
     1
 90
       50
176
     1
290
     0
176
     1
 90
       50
176
     1
 62
   256
176
     0
 40
1.0
176
     0
 90
        2
176
     1
  1
strokes_ogs.tif
176
     1
290
     0
176
     1
 40
1.0
176
     1
 40
1.0
176
     1
1001
ACAD
1000
AcDbSavedByObjectVersion
1070
     0
  0
VISUALSTYLE
  5
1E4
102
{ACAD_REACTORS
330
EF
102
}
330
EF
100
AcDbVisualStyle
  2
JitterOff
 70
    20
177
     3
291
     1
 70
    58
 90
        2
176
     0
 90
        2
176
     0
 90
        0
176
     0
 90
        0
176
     0
 40
0.6
176
     0
 40
30.0
176
     0
 62
     7
420
 16777215
176
     0
 90
        1
176
     0
 90
        4
176
     0
 62
     7
176
     0
 62
   257
176
     0
 90
        1
176
     0
 90
        1
176
     0
 40
1.0
176
     0
 90
       10
176
     2
 62
     7
176
     0
 40
1.0
176
     0
 90
        1
176
     0
 90
        6
176
     0
 90
        2
176
     0
 62
     7
176
     0
 90
        5
176
     0
 90
        0
176
     0
 90
        0
176
     0
290
     0
176
     0
 90
        1
176
     0
 40
0.0
176
     0
 90
        0
176
     0
290
     0
176
     1
290
     1
176
     1
290
     1
176
     1
290
     0
176
     1
290
     0
176
     1
290
     0
176
     1
290
     0
176
     1
290
     0
176
     1
290
     0
176
     1
 90
       50
176
     1
 40
0.0
176
     1
 40
1.0
176
     1
 90
        0
176
     1
 62
    18
420
        0
176
     1
 90
       50
176
     1
 90
        3
176
     1
 62
     5
420
      255
176
     1
290
     0
176
     1
 90
       50
176
     1
 90
       50
176
     1
 90
       50
176
     1
290
     0
176
     1
 90
       50
176
     1
 62
   256
176
     0
 40
1.0
176
     0
 90
        2
176
     1
  1
strokes_ogs.tif
176
     1
290
     0
176
     1
 40
1.0
176
     1
 40
1.0
176
     1
1001
ACAD
1000
AcDbSavedByObjectVersion
1070
     0
  0
VISUALSTYLE
  5
FD
102
{ACAD_REACTORS
330
EF
102
}
330
EF
100
AcDbVisualStyle
  2
Linepattern
 70
    14
177
     3
291
     1
 70
    58
 90
        2
176
     1
 90
        2
176
     1
 90
        1
176
     1
 90
        0
176
     1
 40
0.6
176
     1
 40
30.0
176
     1
 62
     7
420
 16777215
176
     1
 90
        1
176
     1
 90
        4
176
     1
 62
     7
176
     1
 62
   257
176
     1
 90
        7
176
     1
 90
        7
176
     1
 40
1.0
176
     1
 90
        8
176
     1
 62
     7
176
     1
 40
1.0
176
     1
 90
        1
176
     1
 90
        6
176
     1
 90
        2
176
     1
 62
     7
176
     1
 90
        5
176
     1
 90
        0
176
     1
 90
        0
176
     1
290
     0
176
     1
 90
        1
176
     1
 40
0.0
176
     1
 90
        0
176
     1
290
     0
176
     1
290
     1
176
     1
290
     1
176
     1
290
     0
176
     1
290
     0
176
     1
290
     0
176
     1
290
     0
176
     1
290
     0
176
     1
290
     0
176
     1
 90
       50
176
     1
 40
0.0
176
     1
 40
1.0
176
     1
 90
        0
176
     1
 62
    18
420
        0
176
     1
 90
       50
176
     1
 90
        3
176
     1
 62
     5
420
      255
176
     1
290
     0
176
     1
 90
       50
176
     1
 90
       50
176
     1
 90
       50
176
     1
290
     0
176
     1
 90
       50
176
     1
 62
   256
176
     0
 40
1.0
176
     0
 90
        2
176
     1
  1
strokes_ogs.tif
176
     1
290
     0
176
     1
 40
1.0
176
     1
 40
1.0
176
     1
1001
ACAD
1000
AcDbSavedByObjectVersion
1070
     0
  0
VISUALSTYLE
  5
1E5
102
{ACAD_REACTORS
330
EF
102
}
330
EF
100
AcDbVisualStyle
  2
OverhangOff
 70
    21
177
     3
291
     1
 70
    58
 90
        2
176
     0
 90
        2
176
     0
 90
        0
176
     0
 90
        0
176
     0
 40
0.6
176
     0
 40
30.0
176
     0
 62
     7
420
 16777215
176
     0
 90
        1
176
     0
 90
        4
176
     0
 62
     7
176
     0
 62
   257
176
     0
 90
        1
176
     0
 90
        1
176
     0
 40
1.0
176
     0
 90
        9
176
     2
 62
     7
176
     0
 40
1.0
176
     0
 90
        1
176
     0
 90
        6
176
     0
 90
        2
176
     0
 62
     7
176
     0
 90
        5
176
     0
 90
        0
176
     0
 90
        0
176
     0
290
     0
176
     0
 90
        1
176
     0
 40
0.0
176
     0
 90
        0
176
     0
290
     0
176
     1
290
     1
176
     1
290
     1
176
     1
290
     0
176
     1
290
     0
176
     1
290
     0
176
     1
290
     0
176
     1
290
     0
176
     1
290
     0
176
     1
 90
       50
176
     1
 40
0.0
176
     1
 40
1.0
176
     1
 90
        0
176
     1
 62
    18
420
        0
176
     1
 90
       50
176
     1
 90
        3
176
     1
 62
     5
420
      255
176
     1
290
     0
176
     1
 90
       50
176
     1
 90
       50
176
     1
 90
       50
176
     1
290
     0
176
     1
 90
       50
176
     1
 62
   256
176
     0
 40
1.0
176
     0
 90
        2
176
     1
  1
strokes_ogs.tif
176
     1
290
     0
176
     1
 40
1.0
176
     1
 40
1.0
176
     1
1001
ACAD
1000
AcDbSavedByObjectVersion
1070
     0
  0
VISUALSTYLE
  5
F9
102
{ACAD_REACTORS
330
EF
102
}
330
EF
100
AcDbVisualStyle
  2
Realistic
 70
     8
177
     3
291
     0
 70
    58
 90
        2
176
     1
 90
        3
176
     1
 90
        0
176
     1
 90
        2
176
     1
 40
0.6
176
     1
 40
30.0
176
     1
 62
     7
420
 16777215
176
     1
 90
        0
176
     1
 90
        0
176
     1
 62
     7
176
     1
 62
   257
176
     1
 90
        1
176
     1
 90
        1
176
     1
 40
1.0
176
     1
 90
        8
176
     1
 62
   257
176
     1
 40
1.0
176
     1
 90
        1
176
     1
 90
        6
176
     1
 90
        2
176
     1
 62
     7
176
     1
 90
        3
176
     1
 90
        0
176
     1
 90
        0
176
     1
290
     0
176
     1
 90
       13
176
     1
 40
0.0
176
     1
 90
        0
176
     1
290
     0
176
     1
290
     1
176
     1
290
     1
176
     1
290
     0
176
     1
290
     0
176
     1
290
     0
176
     1
290
     0
176
     1
290
     0
176
     1
290
     0
176
     1
 90
       50
176
     1
 40
0.0
176
     1
 40
1.0
176
     1
 90
        0
176
     1
 62
    18
420
        0
176
     1
 90
       50
176
     1
 90
        3
176
     1
 62
     5
420
      255
176
     1
290
     0
176
     1
 90
       50
176
     1
 90
       50
176
     1
 90
       50
176
     1
290
     0
176
     1
 90
       50
176
     1
 62
   256
176
     0
 40
1.0
176
     0
 90
        2
176
     1
  1
strokes_ogs.tif
176
     1
290
     0
176
     1
 40
1.0
176
     1
 40
1.0
176
     1
1001
ACAD
1000
AcDbSavedByObjectVersion
1070
     0
  0
VISUALSTYLE
  5
1F3
102
{ACAD_REACTORS
330
EF
102
}
330
EF
100
AcDbVisualStyle
  2
Shaded
 70
    27
177
     3
291
     0
 70
    58
 90
        2
176
     1
 90
        2
176
     1
 90
        1
176
     1
 90
        2
176
     1
 40
0.6
176
     1
 40
30.0
176
     1
 62
     7
420
 16777215
176
     1
 90
        0
176
     1
 90
        4
176
     1
 62
     7
176
     1
 62
   257
176
     1
 90
        1
176
     1
 90
        1
176
     1
 40
1.0
176
     1
 90
        8
176
     1
 62
   257
176
     1
 40
1.0
176
     1
 90
        1
176
     1
 90
        6
176
     1
 90
        2
176
     1
 62
     8
420
  7895160
176
     1
 90
        3
176
     1
 90
        0
176
     1
 90
        0
176
     1
290
     0
176
     1
 90
        5
176
     1
 40
0.0
176
     1
 90
        0
176
     1
290
     0
176
     1
290
     1
176
     1
290
     1
176
     1
290
     0
176
     1
290
     0
176
     1
290
     0
176
     1
290
     0
176
     1
290
     0
176
     1
290
     0
176
     1
 90
       50
176
     1
 40
0.0
176
     1
 40
1.0
176
     1
 90
        0
176
     1
 62
    18
420
        0
176
     1
 90
       50
176
     1
 90
        3
176
     1
 62
     5
420
      255
176
     1
290
     0
176
     1
 90
       50
176
     1
 90
       50
176
     1
 90
       50
176
     1
290
     0
176
     1
 90
       50
176
     1
 62
   256
176
     0
 40
1.0
176
     0
 90
        2
176
     1
  1
strokes_ogs.tif
176
     1
290
     0
176
     1
 40
1.0
176
     1
 40
1.0
176
     1
1001
ACAD
1000
AcDbSavedByObjectVersion
1070
     0
  0
VISUALSTYLE
  5
1F2
102
{ACAD_REACTORS
330
EF
102
}
330
EF
100
AcDbVisualStyle
  2
Shaded with edges
 70
    26
177
     3
291
     0
 70
    58
 90
        2
176
     1
 90
        2
176
     1
 90
        1
176
     1
 90
        2
176
     1
 40
0.6
176
     1
 40
30.0
176
     1
 62
     7
420
 16777215
176
     1
 90
        1
176
     1
 90
        2
176
     1
 62
     7
176
     1
 62
   257
176
     1
 90
        2
176
     1
 90
        1
176
     1
 40
1.0
176
     1
 90
        8
176
     1
 62
   257
176
     1
 40
1.0
176
     1
 90
        1
176
     1
 90
        6
176
     1
 90
        2
176
     1
 62
     7
176
     1
 90
        3
176
     1
 90
        0
176
     1
 90
        0
176
     1
290
     0
176
     1
 90
        5
176
     1
 40
0.0
176
     1
 90
        0
176
     1
290
     0
176
     1
290
     1
176
     1
290
     1
176
     1
290
     0
176
     1
290
     0
176
     1
290
     0
176
     1
290
     0
176
     1
290
     0
176
     1
290
     0
176
     1
 90
       50
176
     1
 40
0.0
176
     1
 40
1.0
176
     1
 90
        0
176
     1
 62
    18
420
        0
176
     1
 90
       50
176
     1
 90
        3
176
     1
 62
     5
420
      255
176
     1
290
     0
176
     1
 90
       50
176
     1
 90
       50
176
     1
 90
       50
176
     1
290
     0
176
     1
 90
       50
176
     1
 62
   256
176
     0
 40
1.0
176
     0
 90
        2
176
     1
  1
strokes_ogs.tif
176
     1
290
     0
176
     1
 40
1.0
176
     1
 40
1.0
176
     1
1001
ACAD
1000
AcDbSavedByObjectVersion
1070
     0
  0
VISUALSTYLE
  5
1EF
102
{ACAD_REACTORS
330
EF
102
}
330
EF
100
AcDbVisualStyle
  2
Shades of Gray
 70
    23
177
     3
291
     0
 70
    58
 90
        2
176
     1
 90
        2
176
     1
 90
        3
176
     1
 90
        0
176
     1
 40
0.6
176
     1
 40
30.0
176
     1
 62
     7
420
 16777215
176
     1
 90
        2
176
     1
 90
        2
176
     1
 62
     7
176
     1
 62
     7
176
     1
 90
        1
176
     1
 90
        1
176
     1
 40
40.0
176
     1
 90
        8
176
     1
 62
     7
176
     1
 40
1.0
176
     1
 90
        1
176
     1
 90
        6
176
     1
 90
        2
176
     1
 62
     7
176
     1
 90
        3
176
     1
 90
        0
176
     1
 90
        0
176
     1
290
     0
176
     1
 90
        1
176
     1
 40
0.0
176
     1
 90
        0
176
     1
290
     0
176
     1
290
     1
176
     1
290
     1
176
     1
290
     0
176
     1
290
     0
176
     1
290
     0
176
     1
290
     0
176
     1
290
     0
176
     1
290
     0
176
     1
 90
       50
176
     1
 40
0.0
176
     1
 40
1.0
176
     1
 90
        0
176
     1
 62
    18
420
        0
176
     1
 90
       50
176
     1
 90
        3
176
     1
 62
     5
420
      255
176
     1
290
     0
176
     1
 90
       50
176
     1
 90
       50
176
     1
 90
       50
176
     1
290
     0
176
     1
 90
       50
176
     1
 62
   256
176
     0
 40
1.0
176
     0
 90
        2
176
     1
  1
strokes_ogs.tif
176
     1
290
     0
176
     1
 40
1.0
176
     1
 40
1.0
176
     1
1001
ACAD
1000
AcDbSavedByObjectVersion
1070
     0
  0
VISUALSTYLE
  5
1F0
102
{ACAD_REACTORS
330
EF
102
}
330
EF
100
AcDbVisualStyle
  2
Sketchy
 70
    24
177
     3
291
     0
 70
    58
 90
        1
176
     1
 90
        2
176
     1
 90
        2
176
     1
 90
        0
176
     1
 40
0.6
176
     1
 40
30.0
176
     1
 62
     7
420
 16777215
176
     1
 90
        2
176
     1
 90
        2
176
     1
 62
     7
176
     1
 62
     7
176
     1
 90
        1
176
     1
 90
        1
176
     1
 40
40.0
176
     1
 90
       11
176
     1
 62
     7
176
     1
 40
1.0
176
     1
 90
        1
176
     1
 90
        6
176
     1
 90
        2
176
     1
 62
     7
176
     1
 90
        6
176
     1
 90
        0
176
     1
 90
        0
176
     1
290
     0
176
     1
 90
        1
176
     1
 40
0.0
176
     1
 90
        0
176
     1
290
     0
176
     1
290
     1
176
     1
290
     1
176
     1
290
     0
176
     1
290
     0
176
     1
290
     0
176
     1
290
     0
176
     1
290
     0
176
     1
290
     0
176
     1
 90
       50
176
     1
 40
0.0
176
     1
 40
1.0
176
     1
 90
        0
176
     1
 62
    18
420
        0
176
     1
 90
       50
176
     1
 90
        3
176
     1
 62
     5
420
      255
176
     1
290
     0
176
     1
 90
       50
176
     1
 90
       50
176
     1
 90
       50
176
     1
290
     0
176
     1
 90
       50
176
     1
 62
   256
176
     0
 40
1.0
176
     0
 90
        2
176
     1
  1
strokes_ogs.tif
176
     1
290
     0
176
     1
 40
1.0
176
     1
 40
1.0
176
     1
1001
ACAD
1000
AcDbSavedByObjectVersion
1070
     0
  0
VISUALSTYLE
  5
FC
102
{ACAD_REACTORS
330
EF
102
}
330
EF
100
AcDbVisualStyle
  2
Thicken
 70
    13
177
     3
291
     1
 70
    58
 90
        2
176
     1
 90
        2
176
     1
 90
        1
176
     1
 90
        0
176
     1
 40
0.6
176
     1
 40
30.0
176
     1
 62
     7
420
 16777215
176
     1
 90
        1
176
     1
 90
        4
176
     1
 62
     7
176
     1
 62
   257
176
     1
 90
        1
176
     1
 90
        1
176
     1
 40
1.0
176
     1
 90
       12
176
     1
 62
     7
176
     1
 40
1.0
176
     1
 90
        1
176
     1
 90
        6
176
     1
 90
        2
176
     1
 62
     7
176
     1
 90
        5
176
     1
 90
        0
176
     1
 90
        0
176
     1
290
     0
176
     1
 90
        1
176
     1
 40
0.0
176
     1
 90
        0
176
     1
290
     0
176
     1
290
     1
176
     1
290
     1
176
     1
290
     0
176
     1
290
     0
176
     1
290
     0
176
     1
290
     0
176
     1
290
     0
176
     1
290
     0
176
     1
 90
       50
176
     1
 40
0.0
176
     1
 40
1.0
176
     1
 90
        0
176
     1
 62
    18
420
        0
176
     1
 90
       50
176
     1
 90
        3
176
     1
 62
     5
420
      255
176
     1
290
     0
176
     1
 90
       50
176
     1
 90
       50
176
     1
 90
       50
176
     1
290
     0
176
     1
 90
       50
176
     1
 62
   256
176
     0
 40
1.0
176
     0
 90
        2
176
     1
  1
strokes_ogs.tif
176
     1
290
     0
176
     1
 40
1.0
176
     1
 40
1.0
176
     1
1001
ACAD
1000
AcDbSavedByObjectVersion
1070
     0
  0
VISUALSTYLE
  5
F6
102
{ACAD_REACTORS
330
EF
102
}
330
EF
100
AcDbVisualStyle
  2
Wireframe
 70
     5
177
     3
291
     0
 70
    58
 90
        0
176
     1
 90
        2
176
     1
 90
        0
176
     1
 90
        0
176
     1
 40
0.6
176
     1
 40
30.0
176
     1
 62
     7
420
 16777215
176
     1
 90
        1
176
     1
 90
        4
176
     1
 62
     7
176
     1
 62
   257
176
     1
 90
        1
176
     1
 90
        1
176
     1
 40
1.0
176
     1
 90
        0
176
     1
 62
   257
176
     1
 40
1.0
176
     1
 90
        1
176
     1
 90
        6
176
     1
 90
        2
176
     1
 62
     7
176
     1
 90
        3
176
     1
 90
        0
176
     1
 90
        0
176
     1
290
     0
176
     1
 90
        1
176
     1
 40
0.0
176
     1
 90
        0
176
     1
290
     0
176
     1
290
     1
176
     1
290
     1
176
     1
290
     0
176
     1
290
     0
176
     1
290
     0
176
     1
290
     0
176
     1
290
     0
176
     1
290
     0
176
     1
 90
       50
176
     1
 40
0.0
176
     1
 40
1.0
176
     1
 90
        0
176
     1
 62
    18
420
        0
176
     1
 90
       50
176
     1
 90
        3
176
     1
 62
     5
420
      255
176
     1
290
     0
176
     1
 90
       50
176
     1
 90
       50
176
     1
 90
       50
176
     1
290
     0
176
     1
 90
       50
176
     1
 62
   256
176
     0
 40
1.0
176
     0
 90
        2
176
     1
  1
strokes_ogs.tif
176
     1
290
     0
176
     1
 40
1.0
176
     1
 40
1.0
176
     1
1001
ACAD
1000
AcDbSavedByObjectVersion
1070
     0
  0
VISUALSTYLE
  5
1F1
102
{ACAD_REACTORS
330
EF
102
}
330
EF
100
AcDbVisualStyle
  2
X-Ray
 70
    25
177
     3
291
     0
 70
    58
 90
        2
176
     1
 90
        2
176
     1
 90
        1
176
     1
 90
        1
176
     1
 40
0.5
176
     1
 40
30.0
176
     1
 62
     7
420
 16777215
176
     1
 90
        1
176
     1
 90
        0
176
     1
 62
     7
176
     1
 62
   257
176
     1
 90
        1
176
     1
 90
        1
176
     1
 40
1.0
176
     1
 90
        8
176
     1
 62
     7
176
     1
 40
1.0
176
     1
 90
        1
176
     1
 90
        6
176
     1
 90
        2
176
     1
 62
     7
176
     1
 90
        3
176
     1
 90
        0
176
     1
 90
        0
176
     1
290
     0
176
     1
 90
       13
176
     1
 40
0.0
176
     1
 90
        0
176
     1
290
     0
176
     1
290
     1
176
     1
290
     1
176
     1
290
     0
176
     1
290
     0
176
     1
290
     0
176
     1
290
     0
176
     1
290
     0
176
     1
290
     0
176
     1
 90
       50
176
     1
 40
0.0
176
     1
 40
1.0
176
     1
 90
        0
176
     1
 62
    18
420
        0
176
     1
 90
       50
176
     1
 90
        3
176
     1
 62
     5
420
      255
176
     1
290
     0
176
     1
 90
       50
176
     1
 90
       50
176
     1
 90
       50
176
     1
290
     0
176
     1
 90
       50
176
     1
 62
   256
176
     0
 40
1.0
176
     0
 90
        2
176
     1
  1
strokes_ogs.tif
176
     1
290
     0
176
     1
 40
1.0
176
     1
 40
1.0
176
     1
1001
ACAD
1000
AcDbSavedByObjectVersion
1070
     0
  0
DICTIONARYVAR
  5
146
102
{ACAD_REACTORS
330
5E
102
}
330
5E
100
DictionaryVariables
280
     0
  1
1:1
  0
DICTIONARYVAR
  5
259
102
{ACAD_REACTORS
330
5E
102
}
330
5E
100
DictionaryVariables
280
     0
  1
3.500000
  0
DICTIONARYVAR
  5
25A
102
{ACAD_REACTORS
330
5E
102
}
330
5E
100
DictionaryVariables
280
     0
  1
acadiso.lin
  0
DICTIONARYVAR
  5
145
102
{ACAD_REACTORS
330
5E
102
}
330
5E
100
DictionaryVariables
280
     0
  1
STANDARD
  0
DICTIONARYVAR
  5
84
102
{ACAD_REACTORS
330
5E
102
}
330
5E
100
DictionaryVariables
280
     0
  1
STANDARD
  0
DICTIONARYVAR
  5
227
102
{ACAD_REACTORS
330
5E
102
}
330
5E
100
DictionaryVariables
280
     0
  1
Metric50
  0
DICTIONARYVAR
  5
228
102
{ACAD_REACTORS
330
5E
102
}
330
5E
100
DictionaryVariables
280
     0
  1
Metric50
  0
DICTIONARYVAR
  5
5F
102
{ACAD_REACTORS
330
5E
102
}
330
5E
100
DictionaryVariables
280
     0
  1
2
  0
DICTIONARYVAR
  5
63
102
{ACAD_REACTORS
330
5E
102
}
330
5E
100
DictionaryVariables
280
     0
  1
1
  0
DICTIONARYVAR
  5
1AE
102
{ACAD_REACTORS
330
5E
102
}
330
5E
100
DictionaryVariables
280
     0
  1
0
  0
DICTIONARYVAR
  5
1AF
102
{ACAD_REACTORS
330
5E
102
}
330
5E
100
DictionaryVariables
280
     0
  1
0
  0
DICTIONARY
  5
3C2
102
{ACAD_REACTORS
330
3C0
102
}
330
3C0
100
AcDbDictionary
281
     1
  0
DICTIONARY
  5
3C1
102
{ACAD_REACTORS
330
3C0
102
}
330
3C0
100
AcDbDictionary
281
     1
  3
2201395621680
350
3BB
  3
2201395621696
350
3BC
  3
2201395621712
350
3BD
  3
2201395621728
350
3BE
  3
2201395621744
350
3BF
  0
DICTIONARY
  5
3C5
330
21C
100
AcDbDictionary
280
     1
281
     1
  3
ACAD_XREC_ROUNDTRIP
360
3C6
  0
DICTIONARY
  5
205
330
22
100
AcDbDictionary
280
     1
281
     1
  0
DICTIONARY
  5
1F9
330
ED
100
AcDbDictionary
280
     1
281
     1
  3
FBXASSET
360
1FA
  0
DICTIONARY
  5
1F7
330
EC
100
AcDbDictionary
280
     1
281
     1
  3
FBXASSET
360
1F8
  0
DICTIONARY
  5
173
330
EE
100
AcDbDictionary
280
     1
281
     1
  3
BUMPTILE
360
175
  3
DIFFUSETILE
360
174
  3
FBXASSET
360
1FB
  3
OPACITYTILE
360
176
  3
REFLECTIONTILE
360
177
  0
DICTIONARY
  5
3C3
330
21A
100
AcDbDictionary
280
     1
281
     1
  3
ACAD_XREC_ROUNDTRIP
360
3C4
  0
DICTIONARY
  5
162
330
7F
100
AcDbDictionary
280
     1
281
     1
  3
ACAD_ROUNDTRIP_2008_TABLESTYLE_CELLSTYLEMAP
360
3B9
  0
XRECORD
  5
3BB
102
{ACAD_REACTORS
330
3C1
102
}
330
3C1
100
AcDbXrecord
280
     1
  1
AcDb_Thumbnail_Schema
102
{ATTRRECORD
341
3BC
  2
AcDbDs::TreatedAsObjectData
280
     1
291
     1
102
ATTRRECORD}
102
{ATTRRECORD
341
3BD
  2
AcDbDs::Legacy
280
     1
291
     1
102
ATTRRECORD}
  2
AcDbDs::ID
280
    10
 91
        8
102
{ATTRRECORD
341
3BE
  2
AcDs:Indexable
280
     1
291
     1
102
ATTRRECORD}
102
{ATTRRECORD
341
3BF
  2
AcDbDs::HandleAttribute
280
     7
282
     1
102
ATTRRECORD}
  2
Thumbnail_Data
280
    15
 91
        0
  0
XRECORD
  5
3BC
102
{ACAD_REACTORS
330
3C1
102
}
330
3C1
100
AcDbXrecord
280
     1
  1
AcDbDs::TreatedAsObjectDataSchema
  2
AcDbDs::TreatedAsObjectData
280
     1
 91
        0
  0
XRECORD
  5
3BD
102
{ACAD_REACTORS
330
3C1
102
}
330
3C1
100
AcDbXrecord
280
     1
  1
AcDbDs::LegacySchema
  2
AcDbDs::Legacy
280
     1
 91
        0
  0
XRECORD
  5
3BE
102
{ACAD_REACTORS
330
3C1
102
}
330
3C1
100
AcDbXrecord
280
     1
  1
AcDbDs::IndexedPropertySchema
  2
AcDs:Indexable
280
     1
 91
        0
  0
XRECORD
  5
3BF
102
{ACAD_REACTORS
330
3C1
102
}
330
3C1
100
AcDbXrecord
280
     1
  1
AcDbDs::HandleAttributeSchema
  2
AcDbDs::HandleAttribute
280
     7
 91
        1
284
     1
  0
XRECORD
  5
3C6
102
{ACAD_REACTORS
330
3C5
102
}
330
3C5
100
AcDbXrecord
280
     1
102
DISPLAYNAME
  1
Metric50
102
FLAGS
 90
        0
  0
XRECORD
  5
1FA
102
{ACAD_REACTORS
330
1F9
102
}
330
1F9
100
AcDbXrecord
280
     1
 70
     1
 90
429727718
  1
D62C5603-E3A1-4AEA-B7FB-FE5D8D0755AF
310
504B03040A0000080000CC70623B3DEE336E79000000790000001B0000006175746F6465736B2D64657369676E2D7061636B6167652E786D6C3C3F786D6C2076657273696F6E3D22312E302220656E636F64696E673D227574662D3822203F3E3C666F726D6174733E3C666F726D61743E687474703A2F2F736368656D612E
310
6175746F6465736B2E636F6D2F64657369676E2D7061636B6167652F323030393C2F666F726D61743E3C2F666F726D6174733E504B0304140006080800CC70623BD486FD9CA0000000F4000000130000005B436F6E74656E745F54797065735D2E786D6C7D8EC10E82300C865F65E91D8A1E8C310C0EEA1BF002731658846E
310
D98AC1B77784ABF1D8FE5FBFBF75BBCE937A534CCEB38643598122B6FEE978D0B0485F9C41B54DDD7D022595594E1A469170414C76A4D9A4D207E29CF43ECE46F218070CC6BECC4078ACAA135ACF422C856C0E68EA1BF5669944DDD7BCDE7B1F8E415D77AECB980613C2E4AC91FC167A2B244592486606FC29C8FD7F045B9A
310
EF7053A7E60B504B0304140006080800CC70623B853B8169EB0000007C01000008000000636F72652E786D6C8D90416EC3201045AF62CDB6C206821CC7C244919D9CA01740401C94182C03558F5F9C3852BBEB6A467FFE9B197D7EFC9E1EC5975982F5AE035262288C535E5B377690E21535501C055FBC8FBF6C503839990E
310
5619041F179FE64D52DE45E362569DD7661365082642A11EB9E920A89B99642953CC8E702F67A9EE7234257977194EC9EAE275C4EABCCF5EAD5940D4AC6F0E35A568B8F43562CD7046CD199FD07E60174276A7BE677B5EADB0E0D14EEFFB6A31321A0D82627C4084204C3F096B71DD52F6819B16635EADF63F509AF53FA164
310
5DDCD1EDDD17164090FCC8732078B56691CB33A85CD7DCC40F504B0304140006080800CC70623B55019EA25F0000007C00000007000000636E782E786D6C4DCB3B0E80201045D1AD90E915ED2CF8AC45050C11660C8261F98AB1B07AC9C97D42D718D865D3E909258CFD00CCE24AC6E326A164D74DC0B4128928FF32603847
310
2BA13128B1252AC747C6BAB984FC68F0B87FE8960A5C09FE86CFB69FBA01504B0304140006080800CC70623BDBABAAF470010000D40300000C0000006662782F636F72652E786D6CC553D16E823014FD95A6AF4B694182CC941A83FA05FB810A9511A125A5257EFE2E82712ECEB8A7F100CD39F7F69E734AF9FADC366850B6
310
AF8DCE7018308C942E4C59EB2AC3DE1D498AD15A706B8CFB56869196ADCAF00863C12B6B7C374385D14E6907A836A59A41D9F7CA615434B0C8705F7CAA5606D23BA8E84F41278B93AC54100640439DE0BDB320004D43C63716C7C399D30917DCFBBA9CD9BA8469F5B156168B24CED3F7248AC8769F27244EB73B92EED8862C
310
B7F13E0C179B3C8F979C8ECD82BBBABDAA2BAC924E9558448CBD9330242CFA08E3154B5651FCC6D215639C8EE5774DBE2B5F6CF2B5768B68963BB5F5588420E442FC700B1139D4CB01F450C1E918227C2E09DF070D8140C84E1E9AAB8F1340832A9CB13130A5F1376A908D57309505ECF2A0DF179C4E9D30F5B239B87E3823
310
7A79C6F31DE1A8A5AEC08474B03C7837EAE4938639B44E5932B833D2C6B6B279CDC613877FA26EE21F4A2A4C63EC7F29A2F301D1F9F7A0E37D145F504B0304140006080800CC70623B9C113CC27E0000009D0000000B0000006662782F636E782E786D6C4DCCDF0A83201C86E15B91DFB94BFB330DD428C8FB886521330DA7
310
6397BF1A1DECE883878F57749FCDA1B7892F1BBC047A23808C7F84D9FA55424E0BE6803A256208E9EF06C84F9B91703228B1C690F78B66B34CD9A5439DF5CF0BFBF65E35BCA1B8D6A5C6F540381E886698B5741C695F9503EBA150A2F8958E3DC3EA0B504B0304140006080800CC70623B7DF2F77C2A010000120200003100
310
00006662782F41393633353835312D344632462D344230382D423046372D3739314545314133324237412F636F72652E786D6C8D51DB8EC22014FC15C2939B0D2DB4B45643319AE817EC0F6041255A68B86CFCFC856D4D76DF7CE190393373060EDB3DC707F856CE6B6B7A480A0C81328395DA5C7B18C3057510EC3873D686
310
3F34088C18550F330C39BB3A1BA7051AAC09CA84841A2BD5020AEF55806078A44B0FFD7053A328440C89E1EFC52486BBB8AA8214A99D789CF9E05200300FC927E4FB4D5B375D43103D5527440FB843077C5AA3F5861C8F645F5787F59E95B390B318B55CE45AA638FAA2957BD7248B390B7A7CC51F9C124149C82B8C378810
310
84AB2F42B7B8DD56F413775B8C5999E9FF4471926F8AA236A1AE96B8B3CC434E5839373893369E1FAF30EA395917409EB7F26AF8801C171837A4A6AC9C89E9F9C9B1A58BA30FD6A5EF5DDDCF894B9AD9B6A59C957943A9FCAE2FD5BC4DFE03504B0304140006080800CC70623BAD7543B64E01000033030000300000006662
310
782F41393633353835312D344632462D344230382D423046372D3739314545314133324237412F636E782E786D6CD593CD6EC32010845F0571AD6CE3D48AD20813A9873E410FBD12D82434182C7EAAE6EDBB2424CD25871E7B41D6EC30B3FA84F9E67BB2E40B4234DE8DB46F1925E094D7C6ED479AD3AE5951B2113C789FEE
310
6C943839C1488B4C05DF079FE72A69D8C96C13AAD6B8631503449F83828872B949AC57D26200B826A308D316B4064D6E46FCDA41C05550DC9E483A00797BFD207EFB092A45DE9514C1BBD22178396BD39D891265658C238DEA00936C654E5E433CB65A26D9F6EDB5EBC14EBF49A45CB856E66048291F6939A9A81BB5C89177
310
38143CA680F4AA299D66A042CEB3354A2684DC9D8D178FE0D9B8B41CAAD720F880EE7EF93C0C18769E099ECC04D5A102C8049A8A05632F4DDF376CF1DE0F6BB65C2F8627B65A33C6BB62177CEBBDAD973006829F89F22E814B54F4BC2BE347F8AA8F681390B50FA73F804400B5F542E796F19FF974E7F78DB802FE05E20750
310
4B0304140006080800CC70623BE75B7789680500003C100000340000006662782F41393633353835312D344632462D344230382D423046372D3739314545314133324237412F6F626A656374732E786D6CAD575B8F9B3818FD2B887D06C22499CB8AA1CA655245D5B455A356FB305264C061D8018C6C3393D95FBFC7600890
310
A4CD5EF210B0B1BFEBF98E3F7B1FF6596ABC522E1296DF9BAE3D320D9A872C4AF2F8DE2CE5CEBA358D0FBEC719939D65A691938CDE9B6ADAF4BD98B3B2D05311DD91329583D9D5FC0F438434A7A611A644887B5384CF34233629258BA878B12322891DEFF6B66BD70BFB62634E8AE781D082709A4B588AF91C528CDA28B73F
310
1C998EEF39EABBEFA97FBD6A7C7E9553F9D3D79FE442923C3C523610337627CB87ABE99D359D4CC6D6E4FACAB5E6ABF9D2726FC6A3C5F56271377BB88362213924694B38DD99FE47C48627A1E7D49F5A8BB5E1A74C0A599ED3B0F21F1E56366B89112D681E218F0915D0D6F17AD41FBA2A369DCF6335D62ABBD39779D5DDD1
310
11D4D8DE3CBB96B2E04FB8202E41051754A1AA8E8F76B4C6DFE810B580B1547F4B84911149794252234D024EF8BBE963A95AE27B3D310A9D5C215C7960FAEE415ED75694C6AFB17BCACA5D99A60A9AA65F217B0BFC53292ACB92BF283FAD0D3621576592CB5BED907C2FA8E9DF794E35E97BEA31BED21FEB401ABB94C44839
310
DCACBF0E1C5DA8DA5B2F4DFFD32AD86F543D9E565E7056502E157C00AD2671CD534549AB752FCA9CDA00677A313F04E51B22FF19E57B300579E3C97EB29F682D92935CEC18CF901B7B54FD8C51F362B56FC72FE0B3C1EAE335EDCCBF5AEC39ADB17DC238973F804BA5E6F6BFE7AF1FB32E523BE9F3BD571418E3631DCA4D48
310
5250CF639223210A9446CA30052EDF057BD35F8329C1ECD84552BF0DC8D18BE7BCE23BFE6BD960AB4A7DE79923A103BEBD80F911CBAA2C60DB19B01CF164A5583B772EE6D3FFA56666CBCDA74DC97724A48F9A58967497E489C4D979006FD7A05E227A1EBDD0F737C623387A9C844D3709995625106D157315F8B8392CD4E0
310
A0B9A720C4BE9829CEF37EA1E13111214D53925356365ADA634861B52519DD27A00AEB808EAF0628E6F435519D446F45CF2C9CF5214F0A15B2F6D06B79DA3EE3CBF7F56780D2F4E7EF73A0F5E5B02A38D07DC852C6B7C1FBB6664213E0C39E3EBA7FF4E1AD23EA2829407C85E586727488B751B2DB9502BC7B228A3FD68B6E
310
A65A22397E690AA8D158D7E404EC8CDA235CC3B7D1898680131CEC2CDF2638C65196279577750F15884AEE19F94199155B92B13297978469D4F8D358DF0AEF7631E28DC8F0D9F437D5D39A83B2231A1D52D543813A824EF8D44BCFF2FA6A31BD1E8DAD87F1CCB526B3879935BF59CDADD5C37479BB1CDD4CA7B3556B516589
310
EF352754B706114D9C885EC9131DE6EFEB43D99AFE2391C2F958179413D7CFEF6B1B6DB1E7600F00DE6E5C67454A339A4BA2E0FBA85ED26F045D454F463DBFCE484C2F90F2E5E3666003662ED8F755951A7D1BECD5B30B550B2785C8E7320B7292A4838DDA71BBC863ED7613CAF659337A3354231D4FF4A182A54904C2898C
310
98B28C4AD0CE056CCF332A80986E571EE9DBC305BB5FEB7E509220A58D25CF042D712A806AC0AD0C657FDEF80D2D9CEAA2EE4D1C76F60BFE74219A06527D6F82DF6412526107381E55E353090704D085B52408A8913C4ED159D79BDA71BB4BC506F4831350EB6F975CD22D69BF7AC49B91A2C0A9DDA3D5CA36AD20FC478E37
310
E61844E2352865EBCB61A275A65283CAAA9DD27703B4102F5AF51EF5F573B75CBB5AD38BC845F7A49F82A0966A49C2E3EA5EA0ECD326CD965F1DB402C6FA8B51A4658C5C5E2EC9E214602E55810345408596591009A82E7E7FFACA19EEA299B14A0081A705CB3296EBC14CDF658DCD336EA6D1136881AAEB87B81AB9EE53D5
310
F5EB8BC8362082DA24122F98680A4E7930C01A0079749CEA14382A0783E5EBA5A10F8C098456A03D6A4AEB6BB881E2513747552A5DB22C7EDAF83BD5528081A365F7FF06504B0304140006080000CC70623B000000000000000000000000350000006662782F41393633353835312D344632462D344230382D423046372D37
310
39314545314133324237412F76657274696365732E62696E504B0304140006080800CC70623BF270F1330600000004000000360000006662782F41393633353835312D344632462D344230382D423046372D3739314545314133324237412F747269616E676C65732E62696E636660600000504B0304140006080000CC7062
310
3B000000000000000000000000370000006662782F41393633353835312D344632462D344230382D423046372D3739314545314133324237412F617474726962757465732E62696E504B0304140006080800CC70623B08DA0BD19000000041010000360000006662782F41393633353835312D344632462D344230382D4230
310
46372D3739314545314133324237412F6469726563746F72792E786D6C858F410AC3201045AF22B36F53E9A60B35CBEEBAE80D244E44489C6234F4F835464A48035D0DF398FF9F8AF63D0E6CC63039F212F8F9020C7D47C6792B21C5FE7403D62A1188E2E60C98D7234A5830286103A55745067B9D86B8A3CF9C7F90C11DE6
310
07FB144396D7B6A82D282E9A152AD114D5EF2CB866EEE831B8EEA07A7BB5A8D7D61A2BAAEB7FD5F70921FF497D00504B0304140006080800CC70623BEDD1DC58FD000000A00100003B0000006662782F41393633353835312D344632462D344230382D423046372D3739314545314133324237412F7265736F75726365732F
310
636F72652E786D6C8D504B6E833010BD0A9A6D65B00922041947112427E8052C33A156828DFCA97AFC9A40A576D7CDCCE87D344F8F9FBFE667F689CE6B6B3A6039850C8DB2A336530731DC4903D95970676DF82583CCC8193B5861107C72362E3BA4AC096842428D1D7107A5F7182053CF7474E0D507CE32973124857FE48B
310
540F3961CEF244279DE03EB81420DB9EAC1384436FA353E879B1B182C7A8C75DA3C7F453DF353A1075D537A7BA6464B8F535A99AE14A9A2BBD90E350DD183B5CFABE3AF262350B1EF4FC9351399401471025A527C218A1E53BAB5A5AB765F5469B96525EACF23FA6B88CFF34456DC2A1DCE36E360F82A5202F42F062ED2BAD
310
579969AFDD8A6F504B010214000A0000080000CC70623B3DEE336E79000000790000001B00000000000000000000000000000000006175746F6465736B2D64657369676E2D7061636B6167652E786D6C504B01021400140006080800CC70623BD486FD9CA0000000F40000001300000000000000000000000000B20000005B
310
436F6E74656E745F54797065735D2E786D6C504B01021400140006080800CC70623B853B8169EB0000007C010000080000000000000000000000000083010000636F72652E786D6C504B01021400140006080800CC70623B55019EA25F0000007C000000070000000000000000000000000094020000636E782E786D6C504B
310
01021400140006080800CC70623BDBABAAF470010000D40300000C00000000000000000000000000180300006662782F636F72652E786D6C504B01021400140006080800CC70623B9C113CC27E0000009D0000000B00000000000000000000000000B20400006662782F636E782E786D6C504B01021400140006080800CC70
310
623B7DF2F77C2A010000120200003100000000000000000000000000590500006662782F41393633353835312D344632462D344230382D423046372D3739314545314133324237412F636F72652E786D6C504B01021400140006080800CC70623BAD7543B64E010000330300003000000000000000000000000000D2060000
310
6662782F41393633353835312D344632462D344230382D423046372D3739314545314133324237412F636E782E786D6C504B01021400140006080800CC70623BE75B7789680500003C10000034000000000000000000000000006E0800006662782F41393633353835312D344632462D344230382D423046372D3739314545
310
314133324237412F6F626A656374732E786D6C504B01021400140006080000CC70623B0000000000000000000000003500000000000000000000000000280E00006662782F41393633353835312D344632462D344230382D423046372D3739314545314133324237412F76657274696365732E62696E504B01021400140006
310
080800CC70623BF270F133060000000400000036000000000000000000000000007B0E00006662782F41393633353835312D344632462D344230382D423046372D3739314545314133324237412F747269616E676C65732E62696E504B01021400140006080000CC70623B0000000000000000000000003700000000000000
310
000000000000D50E00006662782F41393633353835312D344632462D344230382D423046372D3739314545314133324237412F617474726962757465732E62696E504B01021400140006080800CC70623B08DA0BD1900000004101000036000000000000000000000000002A0F00006662782F41393633353835312D344632
310
462D344230382D423046372D3739314545314133324237412F6469726563746F72792E786D6C504B01021400140006080800CC70623BEDD1DC58FD000000A00100003B000000000000000000000000000E1000006662782F41393633353835312D344632462D344230382D423046372D3739314545314133324237412F7265
310
736F75726365732F636F72652E786D6C504B0506000000000E000E0080040000641100000000
  0
XRECORD
  5
1F8
102
{ACAD_REACTORS
330
1F7
102
}
330
1F7
100
AcDbXrecord
280
     1
 70
     1
 90
429727718
  1
30362254-06B7-45E0-A893-8CFA70E3D6BC
310
504B03040A0000080000CC70623B3DEE336E79000000790000001B0000006175746F6465736B2D64657369676E2D7061636B6167652E786D6C3C3F786D6C2076657273696F6E3D22312E302220656E636F64696E673D227574662D3822203F3E3C666F726D6174733E3C666F726D61743E687474703A2F2F736368656D612E
310
6175746F6465736B2E636F6D2F64657369676E2D7061636B6167652F323030393C2F666F726D61743E3C2F666F726D6174733E504B0304140006080800CC70623BD486FD9CA0000000F4000000130000005B436F6E74656E745F54797065735D2E786D6C7D8EC10E82300C865F65E91D8A1E8C310C0EEA1BF002731658846E
310
D98AC1B77784ABF1D8FE5FBFBF75BBCE937A534CCEB38643598122B6FEE978D0B0485F9C41B54DDD7D022595594E1A469170414C76A4D9A4D207E29CF43ECE46F218070CC6BECC4078ACAA135ACF422C856C0E68EA1BF5669944DDD7BCDE7B1F8E415D77AECB980613C2E4AC91FC167A2B244592486606FC29C8FD7F045B9A
310
EF7053A7E60B504B0304140006080800CC70623B1EC5D7A3EB0000007C01000008000000636F72652E786D6C8D90416EC3201045AF82665B6103C6756C6122AB4D4ED00B204C5C94182C03558F5F9C3852BBEB6A467FFE9B197D71FC9E6FE8CBACC17AD7032D0820E3B41FAD9B7A48F1820F808E52ACDEC75F36404ECDA687
310
4D0629A6D5A76597B477D1B89855E747B38B2A041301E95B6E7A08FAD3CCAA50296647B8168BD2573599823EBB0CA76447F43862C7BCCF5EAC59410E4DDD9C7973C2755553CCCFA4C603E3040F1565ED3B1FDE4E432BCA0D9622DAF9795FAF464533826484B498524CD807E51D79ED187F21878E10516EF63F505AC67F42C9
310
BA58B1FDDD071640D2FCC87D2045B96591CB3DA85CB7DCE40F504B0304140006080800CC70623B55019EA25F0000007C00000007000000636E782E786D6C4DCB3B0E80201045D1AD90E915ED2CF8AC45050C11660C8261F98AB1B07AC9C97D42D718D865D3E909258CFD00CCE24AC6E326A164D74DC0B4128928FF32603847
310
2BA13128B1252AC747C6BAB984FC68F0B87FE8960A5C09FE86CFB69FBA01504B0304140006080800CC70623B8C9102E971010000D40300000C0000006662782F636F72652E786D6CC5535B6E833010BC8AE5DF0A6C08340F1947A84D4ED00B38C6A128602363A31CBFCB234A53A551FA553EC09AD9F5CE8C31DB9E9B1AF5CA
310
7695D1198E428A91D2D214952E33ECDD315861B4E5CC1AE3BE9561A445A3323CC098B3D21ADFCE9034DA29ED00D5A6503328BA4E398C640D8B0C77F253352214DE4145770A5B214FA2546114020D759C75CE8200340D19DE981F0F6746269C33EFAB6266AB02A655C74A59CCF365BADC27CB5D902ED22848F6340DF238A141
310
BE88E2F57B92BFEDF23523433367AE6A2EEAA455C2A902F398D2751045018D3FA264435F3771F242571B4A1919CA6F9A7C5B3CD9E42BED16F12C776AEB308F40C848FC700B1139D4891EF410CEC810227CC6846F8386402064270EF5C5C709A05E49676C024C61FC95EA45ED154CA5211D1FF4FB8291A913A68E9B83EBBB33
310
E2A7673CDE118E5AE8124C0807CB8377834E366998436B950D7A7746DAD846D4CFD978E0F04FD455FC5D49D2D4C6FE9722321F10997F0F32DC47FE05504B0304140006080800CC70623BFFEA85907E0000009D0000000B0000006662782F636E782E786D6C4DCCD10A83201886E15B91FFDC95D95A811AB6F23E625948A6C3
310
E9D8E5AF46073BFAE0E1E365ED67B3E8ADC3CB78C7815C7240DA3DFC64DCC221C519D7805AC182F7F1EF06C88D9BE6703008B6049F9E274D7A1E938DBB5AE3D6131B2589BA0D3D965551E0B2EA732C9B9A624AAEB41E3A557677029960D9AFB4EF11165F504B0304140006080800CC70623B4FEEA4082C0100001202000031
310
0000006662782F39464131463745442D413632322D343644302D413938332D3331353338454246344243312F636F72652E786D6C8D515B6EC32010BC0AE2AB55850DD871ED0813254D72825EC00192A2C460F1A872FC42ED48ED5F7E00CDCECCCEB26C731F6FE05B39AFADE921293004CA082BB5B9F43086336A21D870E6AC
310
0D7F68109861543DCC30E4ECE26C9C164858139409093556AA051CBC570102714B8F1E7AF1A5C6A11862480C7F2DA6415C878B2A4891CA89C7990F2E050073937C42DE1DB7E4F87ED8A36D4329AA9B3D46DBAEAD504556557BD81DEBDD0761E52CE42C462D17B996298E3E6BE59E35C962CE821E1FF18553435012728A7187
310
0841987E927A8D9B35ADDF70BBC6989599FE4F1427F9A4286A132ABAC49D651EF234CD5CE04CDA78BA3DC2A8FB645D00B9DF8B57E215725C60BCA2A463E54C4CE327C7A65E1C7DB02E7DEFCBF594B864C5CA6CDBD49C957943E9FA5D5FBAF336F90F504B0304140006080800CC70623BAD7543B64E01000033030000300000
310
006662782F39464131463745442D413632322D343644302D413938332D3331353338454246344243312F636E782E786D6CD593CD6EC32010845F0571AD6CE3D48AD20813A9873E410FBD12D82434182C7EAAE6EDBB2424CD25871E7B41D6EC30B3FA84F9E67BB2E40B4234DE8DB46F1925E094D7C6ED479AD3AE5951B2113C
310
789FEE6C943839C1488B4C05DF079FE72A69D8C96C13AAD6B8631503449F83828872B949AC57D26200B826A308D316B4064D6E46FCDA41C05550DC9E483A00797BFD207EFB092A45DE9514C1BBD22178396BD39D891265658C238DEA00936C654E5E433CB65A26D9F6EDB5EBC14EBF49A45CB856E66048291F6939A9A81BB5
310
C8917738143CA680F4AA299D66A042CEB3354A2684DC9D8D178FE0D9B8B41CAAD720F880EE7EF93C0C18769E099ECC04D5A102C8049A8A05632F4DDF376CF1DE0F6BB65C2F8627B65A33C6BB62177CEBBDAD973006829F89F22E814B54F4BC2BE347F8AA8F681390B50FA73F804400B5F542E796F19FF974E7F78DB802FE05
310
E207504B0304140006080800CC70623B16AB87BA640500003C100000340000006662782F39464131463745442D413632322D343644302D413938332D3331353338454246344243312F6F626A656374732E786D6CAD575B6FA33818FD2B887DE6924B3BED8A326A92B68A663B534DD4D13E548A0C38942D60649B369D5FBFC7
310
600890A493BDE42160637FD7F31D7FF63E6FB3D478A55C242CBF3247B66B1A340F5994E4F19559CA8D75611A9F7D8F33263BCB4C232719BD32D5B4E97B316765A1A722BA21652A07B3B7B33F0D11D29C9A46981221AE4C113ED38CD8A4942CA2E2C58E882476BCD9DA23BB5ED8171B73523C0F841684D35CC252CCE79062D4
310
468DFA43D7747CCF51DF7D4FFDEB5593E3AB9CCA9FBEFE241792E4E19EB28198C968BAB8199F5D5A67D3E9C49A9E8F47D6EC76B6B0469F26EEFC7C3EBFBCBEB98462213924694B38DD98FE1D62C393D073EA4FADC5DAF04326852CCF6958F90F0F2B9BB5C48816348F90C7840A68EB78EDF68723159BCEE7891A6B95DDE9D3
310
BCEAEEE8086A6C6F9E5D4B59F0175C10A7A0820BAA5055C7473B5AE3CFDD452D602CD5DF12616444529E90D448938013FE6EFA58AA96F85E4F8C42275708571E98FE6827AF6B2B4AE3D7D83D64E5A64C53054DD3AF90BD06FEA9149565C94FCA0F6B834DC85599E4F2423B24DF0B6AFA979E534DFA9E7A4CC6FA631D486393
310
921829879BF5D781A373557BCB85E97FB90DB62B558F8795179C15944B051F40AB495CF35451D26A4727654E6D8033BD98EF82F21D91FF8AF2DD9982BCF1643BDD4EB516C9492E368C67C88DED563FC36D5EACF66DFF057C3658BDBFA69DF9578B3DA735B64F18C7F20770A9D45CFCF7FCF563D6456A277DBEF78A02637CA2
310
43B90A490AEAB94F72244481D24819A6C0E59B606BFA4B3025981DBB48EAB701D97BF19C577CC77F2D1B6C55A9EF3C732474C0B727303F625995056C3B02963D9EAC146BE78EC5FCEC7FA999EBC5EACBAAE41B12D27B4D2C0BBA49F244E2ECDC81B76B502F113D8F5EE8FB1BE3111CDD4FC2AA9B844CAB1288B68AB90A7CDC
310
1C166AB0D3DC5310625FCC14E779BFD0709F8890A629C9292B1B2DED31A4B0DA928CEE135085754027E3018A397D4D5427D15BD1330B677DC8934285AC3DF45A9EB68FF8F2B8FC0A509AFEECFD0FF2DE25CC6047F7214B195F07EFEB9A094D800F7BFAE8FED187B78EA8A3A400F115961BCAD1215E47C966530AF0EE8128FE
310
58CEBB996A8964FFA529A046635D9353B0336A8F700DDF46271A024E70B0B37C9DE01847591E54DED53D54202AB947E4076556AC49C6CA5C9E1226B7F1A7B1BE15DEED62C41B91E1B3E9AFAAA735036547343A925075041DF0A9979E893B391F8FCFA6967B3EFB644DCF6E5CEBFAE272625DCC6FAF3FB93793C5F90CE1EF57
310
407342756B10D1C489E8953CD1617E5CEECAD6F4EF8914CE5D5D504E5C3F1F9736DA62CFC11E00BCDDB8CC8A9466349744C1F75EBDA4DF09BA8A9E8C7A7E9991989E20E5DBDD6A6003664ED8F7A04A8DBE0DF6EAD9B9AA858342E47399053949D2C146EDB85DE4B176BB0965FBAC19BD19AA918E27FA50C1D22402E144464C
310
59462568E704B6E71915404CB72B8FF4EDE184DDAF753F284990D2C6926782963815403548A70C657FDEF80D2D9CEAA2AE4C1C76F60BFE74219A06527D6582DF6412526107381E55E353090704D085B52408D0933C4ED159D79BDA71BB4BC506F4831350EB6F979CD22D69BF7AC49B91A2C0A9DDA3D5CA36AD20FC478E37E6
310
1844E2352865EBCB6EA275A652E3836BE04EFB400BF1A2556F515F1FBB35B2AB35BD889C744FFA1004B5544B121E57F70215746DD2F5E2C1412B602CBF19455AC6C8E5E9922C4E01E65215385004546899059180EAFCF7A707CE7017CD8CDB0410789AB32C63B91E5CEBBBACB17AC6CD347A022D5075FD106377347AAABA7E
310
7D11590744509B44E205134DC1290F06580320F78E537D3D73540E06CB970B431F185308AD40BBD794D6D77003C5A36E8EAA54BA64597CD8F83BD552A080A365F7FF06504B0304140006080000CC70623B000000000000000000000000350000006662782F39464131463745442D413632322D343644302D413938332D3331
310
353338454246344243312F76657274696365732E62696E504B0304140006080800CC70623BF270F1330600000004000000360000006662782F39464131463745442D413632322D343644302D413938332D3331353338454246344243312F747269616E676C65732E62696E636660600000504B0304140006080000CC70623B
310
000000000000000000000000370000006662782F39464131463745442D413632322D343644302D413938332D3331353338454246344243312F617474726962757465732E62696E504B0304140006080800CC70623B08DA0BD19000000041010000360000006662782F39464131463745442D413632322D343644302D413938
310
332D3331353338454246344243312F6469726563746F72792E786D6C858F410AC3201045AF22B36F53E9A60B35CBEEBAE80D244E44489C6234F4F835464A48035D0DF398FF9F8AF63D0E6CC63039F212F8F9020C7D47C6792B21C5FE7403D62A1188E2E60C98D7234A5830286103A55745067B9D86B8A3CF9C7F90C11DE607
310
FB144396D7B6A82D282E9A152AD114D5EF2CB866EEE831B8EEA07A7BB5A8D7D61A2BAAEB7FD5F70921FF497D00504B0304140006080800CC70623B0D6EF93BFE000000A00100003B0000006662782F39464131463745442D413632322D343644302D413938332D3331353338454246344243312F7265736F75726365732F63
310
6F72652E786D6C8D50596E833010BD0A9ADFCA60B334011947A8694ED00B586642AC041B79A97AFC9A40A5F6AF3F33A3B7689E1E3F7DCD8FEC139DD7D6F4C0720A191A65476DA61E62B892236427C19DB5E1970C322367EC618541F0C9D9B8EC90B226A009093576C41D94DE63804C3DD2D18357379C652E63480A7FCF17A9
310
EE72C29CE5894E3AC17D702940B63D59270887DE46A7D0F36263058F518FBB468FE9A7BE6A7420864373B8D4873369AA8691FA421B3294352543C5CAF65C0F6FEF43CB8BD52C78D0F34F46E550061C419494B6843142CB0F5677F4B52BEB177AEC28E5C52AFF638ACBF84F53D42654E51E77B379102C05791282176B5F693D
310
CB4C7BED567C03504B010214000A0000080000CC70623B3DEE336E79000000790000001B00000000000000000000000000000000006175746F6465736B2D64657369676E2D7061636B6167652E786D6C504B01021400140006080800CC70623BD486FD9CA0000000F40000001300000000000000000000000000B20000005B
310
436F6E74656E745F54797065735D2E786D6C504B01021400140006080800CC70623B1EC5D7A3EB0000007C010000080000000000000000000000000083010000636F72652E786D6C504B01021400140006080800CC70623B55019EA25F0000007C000000070000000000000000000000000094020000636E782E786D6C504B
310
01021400140006080800CC70623B8C9102E971010000D40300000C00000000000000000000000000180300006662782F636F72652E786D6C504B01021400140006080800CC70623BFFEA85907E0000009D0000000B00000000000000000000000000B30400006662782F636E782E786D6C504B01021400140006080800CC70
310
623B4FEEA4082C0100001202000031000000000000000000000000005A0500006662782F39464131463745442D413632322D343644302D413938332D3331353338454246344243312F636F72652E786D6C504B01021400140006080800CC70623BAD7543B64E010000330300003000000000000000000000000000D5060000
310
6662782F39464131463745442D413632322D343644302D413938332D3331353338454246344243312F636E782E786D6C504B01021400140006080800CC70623B16AB87BA640500003C1000003400000000000000000000000000710800006662782F39464131463745442D413632322D343644302D413938332D3331353338
310
454246344243312F6F626A656374732E786D6C504B01021400140006080000CC70623B0000000000000000000000003500000000000000000000000000270E00006662782F39464131463745442D413632322D343644302D413938332D3331353338454246344243312F76657274696365732E62696E504B01021400140006
310
080800CC70623BF270F133060000000400000036000000000000000000000000007A0E00006662782F39464131463745442D413632322D343644302D413938332D3331353338454246344243312F747269616E676C65732E62696E504B01021400140006080000CC70623B0000000000000000000000003700000000000000
310
000000000000D40E00006662782F39464131463745442D413632322D343644302D413938332D3331353338454246344243312F617474726962757465732E62696E504B01021400140006080800CC70623B08DA0BD190000000410100003600000000000000000000000000290F00006662782F39464131463745442D413632
310
322D343644302D413938332D3331353338454246344243312F6469726563746F72792E786D6C504B01021400140006080800CC70623B0D6EF93BFE000000A00100003B000000000000000000000000000D1000006662782F39464131463745442D413632322D343644302D413938332D3331353338454246344243312F7265
310
736F75726365732F636F72652E786D6C504B0506000000000E000E0080040000641100000000
  0
XRECORD
  5
175
102
{ACAD_REACTORS
330
173
102
}
330
173
100
AcDbXrecord
280
     1
270
     1
271
     1
  0
XRECORD
  5
174
102
{ACAD_REACTORS
330
173
102
}
330
173
100
AcDbXrecord
280
     1
270
     1
271
     1
  0
XRECORD
  5
1FB
102
{ACAD_REACTORS
330
173
102
}
330
173
100
AcDbXrecord
280
     1
 70
     0
 90
1673772943
  1
ECE7A1D2-D628-4531-984C-D00F80459256
310
504B03040A0000080000CC70623B3DEE336E79000000790000001B0000006175746F6465736B2D64657369676E2D7061636B6167652E786D6C3C3F786D6C2076657273696F6E3D22312E302220656E636F64696E673D227574662D3822203F3E3C666F726D6174733E3C666F726D61743E687474703A2F2F736368656D612E
310
6175746F6465736B2E636F6D2F64657369676E2D7061636B6167652F323030393C2F666F726D61743E3C2F666F726D6174733E504B0304140006080800CC70623BD486FD9CA0000000F4000000130000005B436F6E74656E745F54797065735D2E786D6C7D8EC10E82300C865F65E91D8A1E8C310C0EEA1BF002731658846E
310
D98AC1B77784ABF1D8FE5FBFBF75BBCE937A534CCEB38643598122B6FEE978D0B0485F9C41B54DDD7D022595594E1A469170414C76A4D9A4D207E29CF43ECE46F218070CC6BECC4078ACAA135ACF422C856C0E68EA1BF5669944DDD7BCDE7B1F8E415D77AECB980613C2E4AC91FC167A2B244592486606FC29C8FD7F045B9A
310
EF7053A7E60B504B0304140006080800CC70623BD9DDAED0EC0000007C01000008000000636F72652E786D6C8D90416EC3201045AF82665B61836D9CD8C2444DD39CA01740405C94182C03558F5F9C3852BBEB6A467FFE9B197D7EF89E6EE8CB2CC17A37002D0820E394D7D68D03A478C17B4007C117EFE32F1B20272733C0
310
2A83E0E3E2D3BC49CABB685CCCAAF3DA6CA20CC14440EA969B0182FA34932C648AD911AEC52CD5558EA6A0CF2EC329598D1E47ACCEFBECC59A050463A7EA5833865FEBDD0E37353BE3EE8DBDE3F6786A48D375FBF6CC78B9C282473B3DEFABC5C86834888A900E538A49F5419B9EB47DD5BC907D4F082F57FB1F28CDFA9F50
310
B22ED6D5F6EE030B20687EE43E10BC5CB3C8E51E54AE6B6EE207504B0304140006080800CC70623B55019EA25F0000007C00000007000000636E782E786D6C4DCB3B0E80201045D1AD90E915ED2CF8AC45050C11660C8261F98AB1B07AC9C97D42D718D865D3E909258CFD00CCE24AC6E326A164D74DC0B4128928FF326038
310
472BA13128B1252AC747C6BAB984FC68F0B87FE8960A5C09FE86CFB69FBA01504B0304140006080800CC70623BA24EB22D72010000D40300000C0000006662782F636F72652E786D6CC5535B6E833010BC8AE5DF0A6C5E49888CA3A6694ED00B38E05014B091B1518EDFE511A5A9D228FD2A1F60CDEC7A67C6986DCE4D8D7A
310
69BA4AAB0C073EC548AA5C17952A33ECECD15B61B4E1CC686DBF9561A44423333CC098B3D268D7CE50AE9595CA02AA74216750749DB418E5352C32DCE59FB211BE70162ABA93DF8AFC244AE9073ED050C759670D0840D390E18DF9F1706664C23973AE2A66B62A605A75ACA4C13C4976E1364A12EF355A2EBD384AF65EFA96
310
BC7B8BED2EA6719AAE16FB8491A199335B351775B991C2CA02F390D2D40B028F861F41BCA68B7518BFD0D59A524686F29B26D7164F36B94AD9289CE54E6D1DE6010819891F6E21228B3AD1831EC219194284CF98F06DD01008846CC5A1BEF83801D4CBDC6A1303536877A57A513B0953A94FC707FDBE6064EA84A9E3E6E0FA
310
EE8CF0E9198F7784A316AA0413C2C2F2E0ECA0934D1AE6D05A69BCDE9E91D2A611F573361E38FC1375157F5752AE6B6DFE4B11990F88CCBF0719EE23FF02504B0304140006080800CC70623B408A7D3B7C0000009D0000000B0000006662782F636E782E786D6C4DCCD10A83201886E15B91FFDC552A92A0064DBC8F581632
310
D3703A76F9ABD1C18E3E78F878E5F0D9027ABBFCF2292AE86E2D20171F69F6715550CB827B40839639A5F2770314A7CD293819B45C73AAFB45B35BA61ACAA1C1C7E7855C58C15BC331339661262CC762340413D68D77DA5B42298546CBE6573AF60CEB2F504B0304140006080800CC70623B449FB9BD290100001202000031
310
0000006662782F36394639363044362D344446342D343946362D394244322D3234314243333846323333332F636F72652E786D6C8D515B6EC32010BC0AE22B55850D98B871848994463E412FE002495162B07854397EA176A4F62F3F2C9A9D991D587EB84F37F0AD7D30CEF6905418026DA553C65E7A98E219ED203808EE9D
310
8B7F6810D871D23D2C3014FCE25D9A57483A1BB58D19B54EE9151C43D0110279CB971E06F9A5A7B11A53CC8C70ADE6515EC78BAE4895DB992778883E0700CB907242D17643D7E2538BD869608875438BBAE38922CAC8F1BDD90DB4691A5E2F42C153326A951B95E398B3D1FE599322163C9AE9115F7A3D46ADA0A018778810
310
84E907617BDCEE297BC5BB3DC6BC2EF47FA234AB2745C9D8D8D035EE220B50105E2F0DC1954B9FB747187D9F9D8FA0CCDB042D5FA0C015C65B42DF78BD10F3F3B363CB56C7109DCFDFBBB97E662ED92EB62D13BC2E1BCAE5777DB9966D8A1F504B0304140006080800CC70623BAD7543B64E01000033030000300000006662
310
782F36394639363044362D344446342D343946362D394244322D3234314243333846323333332F636E782E786D6CD593CD6EC32010845F0571AD6CE3D48AD20813A9873E410FBD12D82434182C7EAAE6EDBB2424CD25871E7B41D6EC30B3FA84F9E67BB2E40B4234DE8DB46F1925E094D7C6ED479AD3AE5951B2113C789FEE
310
6C943839C1488B4C05DF079FE72A69D8C96C13AAD6B8631503449F83828872B949AC57D26200B826A308D316B4064D6E46FCDA41C05550DC9E483A00797BFD207EFB092A45DE9514C1BBD22178396BD39D891265658C238DEA00936C654E5E433CB65A26D9F6EDB5EBC14EBF49A45CB856E66048291F6939A9A81BB5C89177
310
38143CA680F4AA299D66A042CEB3354A2684DC9D8D178FE0D9B8B41CAAD720F880EE7EF93C0C18769E099ECC04D5A102C8049A8A05632F4DDF376CF1DE0F6BB65C2F8627B65A33C6BB62177CEBBDAD973006829F89F22E814B54F4BC2BE347F8AA8F681390B50FA73F804400B5F542E796F19FF974E7F78DB802FE05E20750
310
4B0304140006080800CC70623B8D05915C650500003B100000340000006662782F36394639363044362D344446342D343946362D394244322D3234314243333846323333332F6F626A656374732E786D6CAD575B6FA33814FE2B887D06429276DA1565D4266D158D3A339A6846FB502932E050B66023DB74D2FDF5FB190C01
310
9276B2973C046C8ECFF53B17071F77456EBD502133CEAE6CDF9DD81665314F32965ED995DA3A17B6F5310C04E7AA47665B8C14F4CAD6DB7618A48257A5D94AE89654B91AEDDEDDFC61C998326A5B714EA4BCB265FC440BE2924AF184CA6737218AB8E976E7FA6E4338649B0A523E8D98964450A6A029F619B8588D52FE7039
310
B1BD30F0F4F730D0FF866AF6369557DB33949F31A9088B0F848DD8CCFCF9F2767A76E99CCDE733677E3EF59D9BBB9BA5E37F984D16E78BC5E5F5ED25044B25C0C96822E8D60EEFE11B91C581D77CEA34368A1F5329E68CD1B8B61F16D63A1B8E092D294B10C78C4A48EB593D192E7DED9BDEE7995E1B91FDEDD3ACEA9FE831
310
6A756F9F7D4D79F4274C90A7A04248AA51D5F8C718DAE06FB2F75AC4796EBE65D22A88A22223B995679120E2D50E41AA49C260C046A35368846B0BECD0DFF3EBEB8AD4F835768F69B9ADF25C43D30E6B646F807FAA64AD59F61715C7A54127C4AACA98BA3006A9D792DAE165E0D59B61A01FB3A9F9D838D2DAE62445C86166
310
F37564E842E7DE6A69879FEEA2DD5AE7E371E1A5E025154AC307D06A03D73EB5978C58FFA4C8E9033066E0F3BD53BEC1F39F91BE7B55103791EDE6BBB991A2046172CB4581D8B893FA674DDA17A77B3B7C413D1B511FD2743BFF8A38F03A658705E3ADF8015C3A3417FF3D7E439FF591DA0B5F18BC20C1B8981957AE6392A3
310
F43C640C01D1A0B4728E2DD4F26DB4B3C3152A252A3B4E913CEC1C72F012782FF88EFF8637AA552DBEF76408E8A8DE9E50F9E1CB3A2DA0DB1B6039A893B56063DC5B3E3FFB5F72E67AB9FEB4AEC496C4F4C1149625DD662C53E89D7BF0F6151A046260D1337DFDC94502430F83B0EE07A130A224BCAD7DAE1D9FB6CD422FF6
310
920702629C4BB9AE79C12F243C6432A6794E18E5552BA56B431AAB5D91317302B2B071E86C3A42B1A02F999E24061403B5D0EB639195DA655DD3EBEAB4FB862DDF579F014AD0E73C22F99E28DA57FB98E75C6CA2D74D53086D600F4786E0FE3144B771A8A7B900F03594DB8A633CBC49B2EDB69228BB479CF863B5E807AAAB
310
23872F6DFEB4129B949CA33823F58830E86D65621E10047D9DB34D862E8EAC3C2ABC2F7B2C40D67CDFE01F5545B92105AF983AC54D93D69E56FB8E797F88913F898A9FEC705D3F9D1B54EC8426FB500D40A03BD0119B06E1B95DDC7EB8F6975367793EBD70E66733DFB9BC982F9CE564727731999F5D4ECFCE3B8D6A4DC2A0
310
6D50FD148437D110834A64C6CDDF57FBACB5C307A2A477DFE4939736CFEF2B175371E0E10CF0DD1D5C15654E0BCA14D1E87DD02FF93782A162C0A3D95F1524A52770F972BF1EE9809D13CE7DD599467F8ECE9ADD85CE85A34CD45355448C64F9E8A031DC2D596ACC6E5DD93D9B82DE2EF5CAF81363A8E47996A0DE24564A79
310
4115AACE09C55E14540231FDA13C319787134EBF34E3A022514E5B4D9E0826E25C02D5805B15ABE1BEF51B26383D445DD9E875EE33FE4C22DA16427D65A3BCA92CA6D28DD01DF5DC53330704308475351050232CCD31583787BA75774AFB06E5070DD0C8EF484E19968C5D83BA5B90B244D31E54D55A372320FE4786B7EA58
310
44E135AA5467CB7EA333A61683CC6A8C3257034C10CF46F40EF9F5BE59BE5BD30C3C72D235E95D10345C1D45445A5F0BB47E46A5EBE5570F9380B5FA629579952296A773720405982B9DE04011506178964401AA8BDF1FBF0A8EAB6861DD6580C0E38217056766716DAEB2D6FA0917D3E4116581EADB879C4E7CFFB11EFACD
310
3D641311495D92C8676CB409A72D18610D803CE8A626049E8EC1887CB5B44CC39883690DDA8399B4B9855B481E7D71D4A9D22F96E5BB73BF5793020C02137BF837504B0304140006080000CC70623B000000000000000000000000350000006662782F36394639363044362D344446342D343946362D394244322D32343142
310
43333846323333332F76657274696365732E62696E504B0304140006080800CC70623BF270F1330600000004000000360000006662782F36394639363044362D344446342D343946362D394244322D3234314243333846323333332F747269616E676C65732E62696E636660600000504B0304140006080000CC70623B0000
310
00000000000000000000370000006662782F36394639363044362D344446342D343946362D394244322D3234314243333846323333332F617474726962757465732E62696E504B0304140006080800CC70623B08DA0BD19000000041010000360000006662782F36394639363044362D344446342D343946362D394244322D
310
3234314243333846323333332F6469726563746F72792E786D6C858F410AC3201045AF22B36F53E9A60B35CBEEBAE80D244E44489C6234F4F835464A48035D0DF398FF9F8AF63D0E6CC63039F212F8F9020C7D47C6792B21C5FE7403D62A1188E2E60C98D7234A5830286103A55745067B9D86B8A3CF9C7F90C11DE607FB14
310
4396D7B6A82D282E9A152AD114D5EF2CB866EEE831B8EEA07A7BB5A8D7D61A2BAAEB7FD5F70921FF497D00504B0304140006080800CC70623BCA768048FE000000A00100003B0000006662782F36394639363044362D344446342D343946362D394244322D3234314243333846323333332F7265736F75726365732F636F72
310
652E786D6C8D50596E833010BD0A9ADFCA60D600328E9AA639412F609909B1126CE4A5EAF16B0295DABFFECC8CDEA2797AECF8353F924FB44E193D409E5248504B332A3D0D10FC95B4901C39B3C6F85F3248B49871801506CE266BC2B243D2688FDA47549B11775038871E12F988C7004EDE7016A9083E2ADC3D5D84BC8B09
310
D33C8D74D471E6BC8D0192EDC93A815B742658898E651BCB59086ADC356A8C3FD555A1055ED7E7E254D615792D0F075295F585746FF53B694EE78A565DD736979A65AB9933AFE69F8CD2A2F038022F28ED489E135A7CE4554F9BBEA85E68DB53CAB255FEC71496F19FA6A0B42F8B3DEE6673C0F318E4497096AD7DC5F52C33
310
EEB55BFE0D504B010214000A0000080000CC70623B3DEE336E79000000790000001B00000000000000000000000000000000006175746F6465736B2D64657369676E2D7061636B6167652E786D6C504B01021400140006080800CC70623BD486FD9CA0000000F40000001300000000000000000000000000B20000005B436F
310
6E74656E745F54797065735D2E786D6C504B01021400140006080800CC70623BD9DDAED0EC0000007C010000080000000000000000000000000083010000636F72652E786D6C504B01021400140006080800CC70623B55019EA25F0000007C000000070000000000000000000000000095020000636E782E786D6C504B0102
310
1400140006080800CC70623BA24EB22D72010000D40300000C00000000000000000000000000190300006662782F636F72652E786D6C504B01021400140006080800CC70623B408A7D3B7C0000009D0000000B00000000000000000000000000B50400006662782F636E782E786D6C504B01021400140006080800CC70623B
310
449FB9BD290100001202000031000000000000000000000000005A0500006662782F36394639363044362D344446342D343946362D394244322D3234314243333846323333332F636F72652E786D6C504B01021400140006080800CC70623BAD7543B64E010000330300003000000000000000000000000000D20600006662
310
782F36394639363044362D344446342D343946362D394244322D3234314243333846323333332F636E782E786D6C504B01021400140006080800CC70623B8D05915C650500003B10000034000000000000000000000000006E0800006662782F36394639363044362D344446342D343946362D394244322D32343142433338
310
46323333332F6F626A656374732E786D6C504B01021400140006080000CC70623B0000000000000000000000003500000000000000000000000000250E00006662782F36394639363044362D344446342D343946362D394244322D3234314243333846323333332F76657274696365732E62696E504B010214001400060808
310
00CC70623BF270F13306000000040000003600000000000000000000000000780E00006662782F36394639363044362D344446342D343946362D394244322D3234314243333846323333332F747269616E676C65732E62696E504B01021400140006080000CC70623B00000000000000000000000037000000000000000000
310
00000000D20E00006662782F36394639363044362D344446342D343946362D394244322D3234314243333846323333332F617474726962757465732E62696E504B01021400140006080800CC70623B08DA0BD190000000410100003600000000000000000000000000270F00006662782F36394639363044362D344446342D
310
343946362D394244322D3234314243333846323333332F6469726563746F72792E786D6C504B01021400140006080800CC70623BCA768048FE000000A00100003B000000000000000000000000000B1000006662782F36394639363044362D344446342D343946362D394244322D3234314243333846323333332F7265736F
310
75726365732F636F72652E786D6C504B0506000000000E000E0080040000621100000000
  0
XRECORD
  5
176
102
{ACAD_REACTORS
330
173
102
}
330
173
100
AcDbXrecord
280
     1
270
     1
271
     1
  0
XRECORD
  5
177
102
{ACAD_REACTORS
330
173
102
}
330
173
100
AcDbXrecord
280
     1
270
     1
271
     1
  0
XRECORD
  5
3C4
102
{ACAD_REACTORS
330
3C3
102
}
330
3C3
100
AcDbXrecord
280
     1
102
DISPLAYNAME
  1
Metric50
102
FLAGS
 90
        0
  0
CELLSTYLEMAP
  5
3B9
102
{ACAD_REACTORS
330
162
102
}
330
162
100
AcDbCellStyleMap
 90
        3
300
CELLSTYLE
  1
TABLEFORMAT_BEGIN
 90
        5
170
     1
 91
        0
 92
    32768
 62
   257
 93
        1
300
CONTENTFORMAT
  1
CONTENTFORMAT_BEGIN
 90
        0
 91
        0
 92
      512
 93
        0
300

 40
0.0
140
1.0
 94
        5
 62
     0
340
11
144
6.0
309
CONTENTFORMAT_END
171
     1
301
MARGIN
  1
CELLMARGIN_BEGIN
 40
1.5
 40
1.5
 40
1.5
 40
1.5
 40
4.5
 40
4.5
309
CELLMARGIN_END
 94
        6
 95
        1
302
GRIDFORMAT
  1
GRIDFORMAT_BEGIN
 90
        0
 91
        1
 62
     0
 92
       -2
340
14
 93
        0
 40
1.125
309
GRIDFORMAT_END
 95
        2
302
GRIDFORMAT
  1
GRIDFORMAT_BEGIN
 90
        0
 91
        1
 62
     0
 92
       -2
340
14
 93
        0
 40
1.125
309
GRIDFORMAT_END
 95
        4
302
GRIDFORMAT
  1
GRIDFORMAT_BEGIN
 90
        0
 91
        1
 62
     0
 92
       -2
340
14
 93
        0
 40
1.125
309
GRIDFORMAT_END
 95
        8
302
GRIDFORMAT
  1
GRIDFORMAT_BEGIN
 90
        0
 91
        1
 62
     0
 92
       -2
340
14
 93
        0
 40
1.125
309
GRIDFORMAT_END
 95
       16
302
GRIDFORMAT
  1
GRIDFORMAT_BEGIN
 90
        0
 91
        1
 62
     0
 92
       -2
340
14
 93
        0
 40
1.125
309
GRIDFORMAT_END
 95
       32
302
GRIDFORMAT
  1
GRIDFORMAT_BEGIN
 90
        0
 91
        1
 62
     0
 92
       -2
340
14
 93
        0
 40
1.125
309
GRIDFORMAT_END
309
TABLEFORMAT_END
  1
CELLSTYLE_BEGIN
 90
        1
 91
        1
300
_TITLE
309
CELLSTYLE_END
300
CELLSTYLE
  1
TABLEFORMAT_BEGIN
 90
        5
170
     1
 91
        0
 92
        0
 62
   257
 93
        1
300
CONTENTFORMAT
  1
CONTENTFORMAT_BEGIN
 90
        0
 91
        0
 92
      512
 93
        0
300

 40
0.0
140
1.0
 94
        5
 62
     0
340
11
144
4.5
309
CONTENTFORMAT_END
171
     1
301
MARGIN
  1
CELLMARGIN_BEGIN
 40
1.5
 40
1.5
 40
1.5
 40
1.5
 40
4.5
 40
4.5
309
CELLMARGIN_END
 94
        6
 95
        1
302
GRIDFORMAT
  1
GRIDFORMAT_BEGIN
 90
        0
 91
        1
 62
     0
 92
       -2
340
14
 93
        0
 40
1.125
309
GRIDFORMAT_END
 95
        2
302
GRIDFORMAT
  1
GRIDFORMAT_BEGIN
 90
        0
 91
        1
 62
     0
 92
       -2
340
14
 93
        0
 40
1.125
309
GRIDFORMAT_END
 95
        4
302
GRIDFORMAT
  1
GRIDFORMAT_BEGIN
 90
        0
 91
        1
 62
     0
 92
       -2
340
14
 93
        0
 40
1.125
309
GRIDFORMAT_END
 95
        8
302
GRIDFORMAT
  1
GRIDFORMAT_BEGIN
 90
        0
 91
        1
 62
     0
 92
       -2
340
14
 93
        0
 40
1.125
309
GRIDFORMAT_END
 95
       16
302
GRIDFORMAT
  1
GRIDFORMAT_BEGIN
 90
        0
 91
        1
 62
     0
 92
       -2
340
14
 93
        0
 40
1.125
309
GRIDFORMAT_END
 95
       32
302
GRIDFORMAT
  1
GRIDFORMAT_BEGIN
 90
        0
 91
        1
 62
     0
 92
       -2
340
14
 93
        0
 40
1.125
309
GRIDFORMAT_END
309
TABLEFORMAT_END
  1
CELLSTYLE_BEGIN
 90
        2
 91
        1
300
_HEADER
309
CELLSTYLE_END
300
CELLSTYLE
  1
TABLEFORMAT_BEGIN
 90
        5
170
     1
 91
        0
 92
        0
 62
   257
 93
        1
300
CONTENTFORMAT
  1
CONTENTFORMAT_BEGIN
 90
        0
 91
        0
 92
      512
 93
        0
300

 40
0.0
140
1.0
 94
        2
 62
     0
340
11
144
4.5
309
CONTENTFORMAT_END
171
     1
301
MARGIN
  1
CELLMARGIN_BEGIN
 40
1.5
 40
1.5
 40
1.5
 40
1.5
 40
4.5
 40
4.5
309
CELLMARGIN_END
 94
        6
 95
        1
302
GRIDFORMAT
  1
GRIDFORMAT_BEGIN
 90
        0
 91
        1
 62
     0
 92
       -2
340
14
 93
        0
 40
1.125
309
GRIDFORMAT_END
 95
        2
302
GRIDFORMAT
  1
GRIDFORMAT_BEGIN
 90
        0
 91
        1
 62
     0
 92
       -2
340
14
 93
        0
 40
1.125
309
GRIDFORMAT_END
 95
        4
302
GRIDFORMAT
  1
GRIDFORMAT_BEGIN
 90
        0
 91
        1
 62
     0
 92
       -2
340
14
 93
        0
 40
1.125
309
GRIDFORMAT_END
 95
        8
302
GRIDFORMAT
  1
GRIDFORMAT_BEGIN
 90
        0
 91
        1
 62
     0
 92
       -2
340
14
 93
        0
 40
1.125
309
GRIDFORMAT_END
 95
       16
302
GRIDFORMAT
  1
GRIDFORMAT_BEGIN
 90
        0
 91
        1
 62
     0
 92
       -2
340
14
 93
        0
 40
1.125
309
GRIDFORMAT_END
 95
       32
302
GRIDFORMAT
  1
GRIDFORMAT_BEGIN
 90
        0
 91
        1
 62
     0
 92
       -2
340
14
 93
        0
 40
1.125
309
GRIDFORMAT_END
309
TABLEFORMAT_END
  1
CELLSTYLE_BEGIN
 90
        3
 91
        2
300
_DATA
309
CELLSTYLE_END
  0
ENDSEC
  0
SECTION
  2
ACDSDATA
 70
     2
 71
     8
  0
ACDSSCHEMA
 90
        0
  1
AcDb_Thumbnail_Schema
  2
AcDbDs::ID
280
    10
 91
        8
  2
Thumbnail_Data
280
    15
 91
        0
101
ACDSRECORD
 95
        0
 90
        1
  2
AcDbDs::TreatedAsObjectData
280
     1
291
     1
101
ACDSRECORD
 95
        0
 90
        2
  2
AcDbDs::Legacy
280
     1
291
     1
101
ACDSRECORD
  1
AcDbDs::ID
 90
        3
  2
AcDs:Indexable
280
     1
291
     1
101
ACDSRECORD
  1
AcDbDs::ID
 90
        4
  2
AcDbDs::HandleAttribute
280
     7
282
     1
  0
ACDSSCHEMA
 90
        1
  1
AcDbDs::TreatedAsObjectDataSchema
  2
AcDbDs::TreatedAsObjectData
280
     1
 91
        0
  0
ACDSSCHEMA
 90
        2
  1
AcDbDs::LegacySchema
  2
AcDbDs::Legacy
280
     1
 91
        0
  0
ACDSSCHEMA
 90
        3
  1
AcDbDs::IndexedPropertySchema
  2
AcDs:Indexable
280
     1
 91
        0
  0
ACDSSCHEMA
 90
        4
  1
AcDbDs::HandleAttributeSchema
  2
AcDbDs::HandleAttribute
280
     7
 91
        1
284
     1
  0
ACDSRECORD
 90
        0
  2
AcDbDs::ID
280
    10
320
22
  2
Thumbnail_Data
280
    15
 94
      896
310
89504E470D0A1A0A0000000D49484452000001000000009108030000001BE1960600000300504C5445212830FFFFFF2128300000000000000000000000000000000000000000000000000000330000660000990000CC0000FF0033000033330033660033990033CC0033FF0066000066330066660066990066CC0066FF0099
310
000099330099660099990099CC0099FF00CC0000CC3300CC6600CC9900CCCC00CCFF00FF0000FF3300FF6600FF9900FFCC00FFFF3300003300333300663300993300CC3300FF3333003333333333663333993333CC3333FF3366003366333366663366993366CC3366FF3399003399333399663399993399CC3399FF33CC00
310
33CC3333CC6633CC9933CCCC33CCFF33FF0033FF3333FF6633FF9933FFCC33FFFF6600006600336600666600996600CC6600FF6633006633336633666633996633CC6633FF6666006666336666666666996666CC6666FF6699006699336699666699996699CC6699FF66CC0066CC3366CC6666CC9966CCCC66CCFF66FF0066
310
FF3366FF6666FF9966FFCC66FFFF9900009900339900669900999900CC9900FF9933009933339933669933999933CC9933FF9966009966339966669966999966CC9966FF9999009999339999669999999999CC9999FF99CC0099CC3399CC6699CC9999CCCC99CCFF99FF0099FF3399FF6699FF9999FFCC99FFFFCC0000CC00
310
33CC0066CC0099CC00CCCC00FFCC3300CC3333CC3366CC3399CC33CCCC33FFCC6600CC6633CC6666CC6699CC66CCCC66FFCC9900CC9933CC9966CC9999CC99CCCC99FFCCCC00CCCC33CCCC66CCCC99CCCCCCCCCCFFCCFF00CCFF33CCFF66CCFF99CCFFCCCCFFFFFF0000FF0033FF0066FF0099FF00CCFF00FFFF3300FF3333
310
FF3366FF3399FF33CCFF33FFFF6600FF6633FF6666FF6699FF66CCFF66FFFF9900FF9933FF9966FF9999FF99CCFF99FFFFCC00FFCC33FFCC66FFCC99FFCCCCFFCCFFFFFF00FFFF33FFFF66FFFF99FFFFCCFFFFFF0000000D0D0D1A1A1A2828283535354343435050505D5D5D6B6B6B787878868686939393A1A1A1AEAEAEBB
310
BBBBC9C9C9D6D6D6E4E4E4F1F1F1FFFFFF0000000000000000000000000000000000000000000000000000000000002E4550F10000003B4944415478DAEDC13101000000C2A0F54F6D0B2FA0000000000000000000000000000000000000000000000000000000000000000000000000CE06919100016C9A5B1B0000000049
310
454E44AE426082
  0
ENDSEC
  0
EOF
